ISO-10303-21;
HEADER;
FILE_DESCRIPTION( ( 'Unknown' ), '1' );
FILE_NAME( 'P:/Solid_Edge_3/T-Stueck_Gl_Gl_Gl/Winkel_44x44x4_1.stp', 'Unknown', ( 'Unknown' ), ( 'Unknown' ), 'PSStep 16.0.42', 'Unknown', '  ' );
FILE_SCHEMA( ( 'AUTOMOTIVE_DESIGN { 1 0 10303 214 1 1 1 1 }' ) );
ENDSEC;
DATA;
#1 = MECHANICAL_DESIGN_GEOMETRIC_PRESENTATION_REPRESENTATION( ' ', ( #10, #11, #12, #13, #14, #15, #16, #17, #18, #19, #20, #21, #22, #23 ), #6 );
#2 = PRODUCT_DEFINITION_CONTEXT( '', #24, 'design' );
#3 = APPLICATION_PROTOCOL_DEFINITION( 'international standard', 'automotive_design', 2001, #24 );
#4 = PRODUCT_CATEGORY_RELATIONSHIP( 'NONE', 'NONE', #25, #26 );
#5 = SHAPE_DEFINITION_REPRESENTATION( #27, #28 );
#6 =  ( GEOMETRIC_REPRESENTATION_CONTEXT( 3 )GLOBAL_UNCERTAINTY_ASSIGNED_CONTEXT( ( #31 ) )GLOBAL_UNIT_ASSIGNED_CONTEXT( ( #33, #34, #35 ) )REPRESENTATION_CONTEXT( 'NONE', 'WORKSPACE' ) );
#10 = STYLED_ITEM( '', ( #37 ), #38 );
#11 = STYLED_ITEM( '', ( #39 ), #40 );
#12 = STYLED_ITEM( '', ( #41 ), #42 );
#13 = STYLED_ITEM( '', ( #43 ), #44 );
#14 = STYLED_ITEM( '', ( #45 ), #46 );
#15 = STYLED_ITEM( '', ( #47 ), #48 );
#16 = STYLED_ITEM( '', ( #49 ), #50 );
#17 = STYLED_ITEM( '', ( #51 ), #52 );
#18 = STYLED_ITEM( '', ( #53 ), #54 );
#19 = STYLED_ITEM( '', ( #55 ), #56 );
#20 = STYLED_ITEM( '', ( #57 ), #58 );
#21 = STYLED_ITEM( '', ( #59 ), #60 );
#22 = STYLED_ITEM( '', ( #61 ), #62 );
#23 = STYLED_ITEM( '', ( #63 ), #64 );
#24 = APPLICATION_CONTEXT( 'core data for automotive mechanical design processes' );
#25 = PRODUCT_CATEGORY( 'part', 'NONE' );
#26 = PRODUCT_RELATED_PRODUCT_CATEGORY( 'detail', ' ', ( #65 ) );
#27 = PRODUCT_DEFINITION_SHAPE( 'NONE', 'NONE', #66 );
#28 = ADVANCED_BREP_SHAPE_REPRESENTATION( '1', ( #67, #68 ), #6 );
#31 = UNCERTAINTY_MEASURE_WITH_UNIT( LENGTH_MEASURE( 0.00100000000000000 ), #33, '', '' );
#33 =  ( CONVERSION_BASED_UNIT( 'MILLIMETRE', #71 )LENGTH_UNIT(  )NAMED_UNIT( #74 ) );
#34 =  ( NAMED_UNIT( #76 )PLANE_ANGLE_UNIT(  )SI_UNIT( $, .RADIAN. ) );
#35 =  ( NAMED_UNIT( #76 )SI_UNIT( $, .STERADIAN. )SOLID_ANGLE_UNIT(  ) );
#37 = PRESENTATION_STYLE_ASSIGNMENT( ( #82 ) );
#38 = ADVANCED_FACE( '', ( #83 ), #84, .F. );
#39 = PRESENTATION_STYLE_ASSIGNMENT( ( #85 ) );
#40 = ADVANCED_FACE( '', ( #86, #87 ), #88, .F. );
#41 = PRESENTATION_STYLE_ASSIGNMENT( ( #89 ) );
#42 = ADVANCED_FACE( '', ( #90, #91 ), #92, .F. );
#43 = PRESENTATION_STYLE_ASSIGNMENT( ( #93 ) );
#44 = ADVANCED_FACE( '', ( #94, #95 ), #96, .F. );
#45 = PRESENTATION_STYLE_ASSIGNMENT( ( #97 ) );
#46 = ADVANCED_FACE( '', ( #98, #99 ), #100, .F. );
#47 = PRESENTATION_STYLE_ASSIGNMENT( ( #101 ) );
#48 = ADVANCED_FACE( '', ( #102, #103 ), #104, .F. );
#49 = PRESENTATION_STYLE_ASSIGNMENT( ( #105 ) );
#50 = ADVANCED_FACE( '', ( #106 ), #107, .T. );
#51 = PRESENTATION_STYLE_ASSIGNMENT( ( #108 ) );
#52 = ADVANCED_FACE( '', ( #109, #110 ), #111, .F. );
#53 = PRESENTATION_STYLE_ASSIGNMENT( ( #112 ) );
#54 = ADVANCED_FACE( '', ( #113 ), #114, .F. );
#55 = PRESENTATION_STYLE_ASSIGNMENT( ( #115 ) );
#56 = ADVANCED_FACE( '', ( #116, #117 ), #118, .F. );
#57 = PRESENTATION_STYLE_ASSIGNMENT( ( #119 ) );
#58 = ADVANCED_FACE( '', ( #120, #121 ), #122, .F. );
#59 = PRESENTATION_STYLE_ASSIGNMENT( ( #123 ) );
#60 = ADVANCED_FACE( '', ( #124, #125 ), #126, .F. );
#61 = PRESENTATION_STYLE_ASSIGNMENT( ( #127 ) );
#62 = ADVANCED_FACE( '', ( #128 ), #129, .F. );
#63 = PRESENTATION_STYLE_ASSIGNMENT( ( #130 ) );
#64 = ADVANCED_FACE( '', ( #131, #132 ), #133, .F. );
#65 = PRODUCT( '1', '1', 'PART-1-DESC', ( #134 ) );
#66 = PRODUCT_DEFINITION( 'NONE', 'NONE', #135, #2 );
#67 = MANIFOLD_SOLID_BREP( '1', #136 );
#68 = AXIS2_PLACEMENT_3D( '', #137, #138, #139 );
#71 = LENGTH_MEASURE_WITH_UNIT( LENGTH_MEASURE( 1.00000000000000 ), #140 );
#74 = DIMENSIONAL_EXPONENTS( 1.00000000000000, 0.000000000000000, 0.000000000000000, 0.000000000000000, 0.000000000000000, 0.000000000000000, 0.000000000000000 );
#76 = DIMENSIONAL_EXPONENTS( 0.000000000000000, 0.000000000000000, 0.000000000000000, 0.000000000000000, 0.000000000000000, 0.000000000000000, 0.000000000000000 );
#82 = SURFACE_STYLE_USAGE( .BOTH., #141 );
#83 = FACE_OUTER_BOUND( '', #142, .T. );
#84 = PLANE( '', #143 );
#85 = SURFACE_STYLE_USAGE( .BOTH., #144 );
#86 = FACE_OUTER_BOUND( '', #145, .T. );
#87 = FACE_OUTER_BOUND( '', #146, .T. );
#88 = CYLINDRICAL_SURFACE( '', #147, 3.25000000000000 );
#89 = SURFACE_STYLE_USAGE( .BOTH., #148 );
#90 = FACE_OUTER_BOUND( '', #149, .T. );
#91 = FACE_OUTER_BOUND( '', #150, .T. );
#92 = CYLINDRICAL_SURFACE( '', #151, 6.00000000000000 );
#93 = SURFACE_STYLE_USAGE( .BOTH., #152 );
#94 = FACE_BOUND( '', #153, .T. );
#95 = FACE_OUTER_BOUND( '', #154, .T. );
#96 = PLANE( '', #155 );
#97 = SURFACE_STYLE_USAGE( .BOTH., #156 );
#98 = FACE_OUTER_BOUND( '', #157, .T. );
#99 = FACE_BOUND( '', #158, .T. );
#100 = CONICAL_SURFACE( '', #159, 6.00000000000000, 0.785398163397448 );
#101 = SURFACE_STYLE_USAGE( .BOTH., #160 );
#102 = FACE_OUTER_BOUND( '', #161, .T. );
#103 = FACE_OUTER_BOUND( '', #162, .T. );
#104 = CYLINDRICAL_SURFACE( '', #163, 6.00000000000000 );
#105 = SURFACE_STYLE_USAGE( .BOTH., #164 );
#106 = FACE_OUTER_BOUND( '', #165, .T. );
#107 = PLANE( '', #166 );
#108 = SURFACE_STYLE_USAGE( .BOTH., #167 );
#109 = FACE_OUTER_BOUND( '', #168, .T. );
#110 = FACE_BOUND( '', #169, .T. );
#111 = CONICAL_SURFACE( '', #170, 6.00000000000000, 0.785398163397448 );
#112 = SURFACE_STYLE_USAGE( .BOTH., #171 );
#113 = FACE_OUTER_BOUND( '', #172, .T. );
#114 = PLANE( '', #173 );
#115 = SURFACE_STYLE_USAGE( .BOTH., #174 );
#116 = FACE_BOUND( '', #175, .T. );
#117 = FACE_OUTER_BOUND( '', #176, .T. );
#118 = PLANE( '', #177 );
#119 = SURFACE_STYLE_USAGE( .BOTH., #178 );
#120 = FACE_BOUND( '', #179, .T. );
#121 = FACE_OUTER_BOUND( '', #180, .T. );
#122 = PLANE( '', #181 );
#123 = SURFACE_STYLE_USAGE( .BOTH., #182 );
#124 = FACE_OUTER_BOUND( '', #183, .T. );
#125 = FACE_OUTER_BOUND( '', #184, .T. );
#126 = CYLINDRICAL_SURFACE( '', #185, 3.25000000000000 );
#127 = SURFACE_STYLE_USAGE( .BOTH., #186 );
#128 = FACE_OUTER_BOUND( '', #187, .T. );
#129 = PLANE( '', #188 );
#130 = SURFACE_STYLE_USAGE( .BOTH., #189 );
#131 = FACE_BOUND( '', #190, .T. );
#132 = FACE_OUTER_BOUND( '', #191, .T. );
#133 = PLANE( '', #192 );
#134 = PRODUCT_CONTEXT( '', #24, 'mechanical' );
#135 = PRODUCT_DEFINITION_FORMATION_WITH_SPECIFIED_SOURCE( ' ', 'NONE', #65, .NOT_KNOWN. );
#136 = CLOSED_SHELL( '', ( #44, #50, #64, #54, #56, #58, #38, #62, #42, #60, #46, #48, #40, #52 ) );
#137 = CARTESIAN_POINT( '', ( 0.000000000000000, 0.000000000000000, 0.000000000000000 ) );
#138 = DIRECTION( '', ( 0.000000000000000, 0.000000000000000, 1.00000000000000 ) );
#139 = DIRECTION( '', ( 1.00000000000000, 0.000000000000000, 0.000000000000000 ) );
#140 =  ( LENGTH_UNIT(  )NAMED_UNIT( #74 )SI_UNIT( .MILLI., .METRE. ) );
#141 = SURFACE_SIDE_STYLE( '', ( #194 ) );
#142 = EDGE_LOOP( '', ( #195, #196, #197, #198 ) );
#143 = AXIS2_PLACEMENT_3D( '', #199, #200, #201 );
#144 = SURFACE_SIDE_STYLE( '', ( #202 ) );
#145 = EDGE_LOOP( '', ( #203 ) );
#146 = EDGE_LOOP( '', ( #204 ) );
#147 = AXIS2_PLACEMENT_3D( '', #205, #206, #207 );
#148 = SURFACE_SIDE_STYLE( '', ( #208 ) );
#149 = EDGE_LOOP( '', ( #209 ) );
#150 = EDGE_LOOP( '', ( #210 ) );
#151 = AXIS2_PLACEMENT_3D( '', #211, #212, #213 );
#152 = SURFACE_SIDE_STYLE( '', ( #214 ) );
#153 = EDGE_LOOP( '', ( #215 ) );
#154 = EDGE_LOOP( '', ( #216, #217, #218, #219 ) );
#155 = AXIS2_PLACEMENT_3D( '', #220, #221, #222 );
#156 = SURFACE_SIDE_STYLE( '', ( #223 ) );
#157 = EDGE_LOOP( '', ( #224 ) );
#158 = EDGE_LOOP( '', ( #225 ) );
#159 = AXIS2_PLACEMENT_3D( '', #226, #227, #228 );
#160 = SURFACE_SIDE_STYLE( '', ( #229 ) );
#161 = EDGE_LOOP( '', ( #230 ) );
#162 = EDGE_LOOP( '', ( #231 ) );
#163 = AXIS2_PLACEMENT_3D( '', #232, #233, #234 );
#164 = SURFACE_SIDE_STYLE( '', ( #235 ) );
#165 = EDGE_LOOP( '', ( #236, #237, #238, #239, #240, #241 ) );
#166 = AXIS2_PLACEMENT_3D( '', #242, #243, #244 );
#167 = SURFACE_SIDE_STYLE( '', ( #245 ) );
#168 = EDGE_LOOP( '', ( #246 ) );
#169 = EDGE_LOOP( '', ( #247 ) );
#170 = AXIS2_PLACEMENT_3D( '', #248, #249, #250 );
#171 = SURFACE_SIDE_STYLE( '', ( #251 ) );
#172 = EDGE_LOOP( '', ( #252, #253, #254, #255 ) );
#173 = AXIS2_PLACEMENT_3D( '', #256, #257, #258 );
#174 = SURFACE_SIDE_STYLE( '', ( #259 ) );
#175 = EDGE_LOOP( '', ( #260 ) );
#176 = EDGE_LOOP( '', ( #261, #262, #263, #264 ) );
#177 = AXIS2_PLACEMENT_3D( '', #265, #266, #267 );
#178 = SURFACE_SIDE_STYLE( '', ( #268 ) );
#179 = EDGE_LOOP( '', ( #269 ) );
#180 = EDGE_LOOP( '', ( #270, #271, #272, #273 ) );
#181 = AXIS2_PLACEMENT_3D( '', #274, #275, #276 );
#182 = SURFACE_SIDE_STYLE( '', ( #277 ) );
#183 = EDGE_LOOP( '', ( #278 ) );
#184 = EDGE_LOOP( '', ( #279 ) );
#185 = AXIS2_PLACEMENT_3D( '', #280, #281, #282 );
#186 = SURFACE_SIDE_STYLE( '', ( #283 ) );
#187 = EDGE_LOOP( '', ( #284, #285, #286, #287, #288, #289 ) );
#188 = AXIS2_PLACEMENT_3D( '', #290, #291, #292 );
#189 = SURFACE_SIDE_STYLE( '', ( #293 ) );
#190 = EDGE_LOOP( '', ( #294 ) );
#191 = EDGE_LOOP( '', ( #295, #296, #297, #298 ) );
#192 = AXIS2_PLACEMENT_3D( '', #299, #300, #301 );
#194 = SURFACE_STYLE_FILL_AREA( #302 );
#195 = ORIENTED_EDGE( '', *, *, #303, .T. );
#196 = ORIENTED_EDGE( '', *, *, #304, .F. );
#197 = ORIENTED_EDGE( '', *, *, #305, .F. );
#198 = ORIENTED_EDGE( '', *, *, #306, .T. );
#199 = CARTESIAN_POINT( '', ( -4.00000000000000, -44.0000000000000, 44.0000000000000 ) );
#200 = DIRECTION( '', ( 0.000000000000000, 1.00000000000000, 0.000000000000000 ) );
#201 = DIRECTION( '', ( 0.000000000000000, 0.000000000000000, 1.00000000000000 ) );
#202 = SURFACE_STYLE_FILL_AREA( #307 );
#203 = ORIENTED_EDGE( '', *, *, #308, .F. );
#204 = ORIENTED_EDGE( '', *, *, #309, .F. );
#205 = CARTESIAN_POINT( '', ( -22.0000000000000, -0.750000000000000, 22.0000000000000 ) );
#206 = DIRECTION( '', ( -0.000000000000000, -1.00000000000000, -0.000000000000000 ) );
#207 = DIRECTION( '', ( 0.000000000000000, 0.000000000000000, -1.00000000000000 ) );
#208 = SURFACE_STYLE_FILL_AREA( #310 );
#209 = ORIENTED_EDGE( '', *, *, #311, .T. );
#210 = ORIENTED_EDGE( '', *, *, #312, .F. );
#211 = CARTESIAN_POINT( '', ( -4.00000000000000, -22.0000000000000, 22.0000000000000 ) );
#212 = DIRECTION( '', ( -1.00000000000000, -2.16840434497101E-016, -0.000000000000000 ) );
#213 = DIRECTION( '', ( 2.16840434497101E-016, -1.00000000000000, 0.000000000000000 ) );
#214 = SURFACE_STYLE_FILL_AREA( #313 );
#215 = ORIENTED_EDGE( '', *, *, #309, .T. );
#216 = ORIENTED_EDGE( '', *, *, #314, .T. );
#217 = ORIENTED_EDGE( '', *, *, #315, .F. );
#218 = ORIENTED_EDGE( '', *, *, #316, .F. );
#219 = ORIENTED_EDGE( '', *, *, #317, .T. );
#220 = CARTESIAN_POINT( '', ( 0.000000000000000, 0.000000000000000, 44.0000000000000 ) );
#221 = DIRECTION( '', ( 1.22464679914735E-016, -1.00000000000000, 0.000000000000000 ) );
#222 = DIRECTION( '', ( 1.00000000000000, 1.22464679914735E-016, 0.000000000000000 ) );
#223 = SURFACE_STYLE_FILL_AREA( #318 );
#224 = ORIENTED_EDGE( '', *, *, #311, .F. );
#225 = ORIENTED_EDGE( '', *, *, #319, .T. );
#226 = CARTESIAN_POINT( '', ( -3.50000000000000, -22.0000000000000, 22.0000000000000 ) );
#227 = DIRECTION( '', ( -1.00000000000000, -2.16840434497101E-016, -0.000000000000000 ) );
#228 = DIRECTION( '', ( -2.16840434497101E-016, 1.00000000000000, 0.000000000000000 ) );
#229 = SURFACE_STYLE_FILL_AREA( #320 );
#230 = ORIENTED_EDGE( '', *, *, #321, .T. );
#231 = ORIENTED_EDGE( '', *, *, #322, .F. );
#232 = CARTESIAN_POINT( '', ( -22.0000000000000, -4.00000000000000, 22.0000000000000 ) );
#233 = DIRECTION( '', ( -0.000000000000000, -1.00000000000000, -0.000000000000000 ) );
#234 = DIRECTION( '', ( 0.000000000000000, 0.000000000000000, -1.00000000000000 ) );
#235 = SURFACE_STYLE_FILL_AREA( #323 );
#236 = ORIENTED_EDGE( '', *, *, #324, .T. );
#237 = ORIENTED_EDGE( '', *, *, #325, .T. );
#238 = ORIENTED_EDGE( '', *, *, #326, .T. );
#239 = ORIENTED_EDGE( '', *, *, #305, .T. );
#240 = ORIENTED_EDGE( '', *, *, #327, .T. );
#241 = ORIENTED_EDGE( '', *, *, #316, .T. );
#242 = CARTESIAN_POINT( '', ( -44.0000000000000, -4.00000000000000, 44.0000000000000 ) );
#243 = DIRECTION( '', ( 0.000000000000000, 0.000000000000000, 1.00000000000000 ) );
#244 = DIRECTION( '', ( 1.00000000000000, 0.000000000000000, 0.000000000000000 ) );
#245 = SURFACE_STYLE_FILL_AREA( #328 );
#246 = ORIENTED_EDGE( '', *, *, #321, .F. );
#247 = ORIENTED_EDGE( '', *, *, #308, .T. );
#248 = CARTESIAN_POINT( '', ( -22.0000000000000, -3.50000000000000, 22.0000000000000 ) );
#249 = DIRECTION( '', ( -0.000000000000000, -1.00000000000000, 0.000000000000000 ) );
#250 = DIRECTION( '', ( 0.000000000000000, 0.000000000000000, 1.00000000000000 ) );
#251 = SURFACE_STYLE_FILL_AREA( #329 );
#252 = ORIENTED_EDGE( '', *, *, #330, .T. );
#253 = ORIENTED_EDGE( '', *, *, #331, .F. );
#254 = ORIENTED_EDGE( '', *, *, #324, .F. );
#255 = ORIENTED_EDGE( '', *, *, #315, .T. );
#256 = CARTESIAN_POINT( '', ( -44.0000000000000, -5.38844591624835E-015, 44.0000000000000 ) );
#257 = DIRECTION( '', ( 1.00000000000000, 0.000000000000000, 0.000000000000000 ) );
#258 = DIRECTION( '', ( 0.000000000000000, 0.000000000000000, -1.00000000000000 ) );
#259 = SURFACE_STYLE_FILL_AREA( #332 );
#260 = ORIENTED_EDGE( '', *, *, #322, .T. );
#261 = ORIENTED_EDGE( '', *, *, #333, .T. );
#262 = ORIENTED_EDGE( '', *, *, #334, .F. );
#263 = ORIENTED_EDGE( '', *, *, #325, .F. );
#264 = ORIENTED_EDGE( '', *, *, #331, .T. );
#265 = CARTESIAN_POINT( '', ( -44.0000000000000, -4.00000000000000, 44.0000000000000 ) );
#266 = DIRECTION( '', ( 0.000000000000000, 1.00000000000000, 0.000000000000000 ) );
#267 = DIRECTION( '', ( 0.000000000000000, 0.000000000000000, 1.00000000000000 ) );
#268 = SURFACE_STYLE_FILL_AREA( #335 );
#269 = ORIENTED_EDGE( '', *, *, #312, .T. );
#270 = ORIENTED_EDGE( '', *, *, #336, .T. );
#271 = ORIENTED_EDGE( '', *, *, #306, .F. );
#272 = ORIENTED_EDGE( '', *, *, #326, .F. );
#273 = ORIENTED_EDGE( '', *, *, #334, .T. );
#274 = CARTESIAN_POINT( '', ( -4.00000000000000, -4.00000000000000, 44.0000000000000 ) );
#275 = DIRECTION( '', ( 1.00000000000000, 2.16840434497101E-016, 0.000000000000000 ) );
#276 = DIRECTION( '', ( -2.16840434497101E-016, 1.00000000000000, 0.000000000000000 ) );
#277 = SURFACE_STYLE_FILL_AREA( #337 );
#278 = ORIENTED_EDGE( '', *, *, #319, .F. );
#279 = ORIENTED_EDGE( '', *, *, #338, .F. );
#280 = CARTESIAN_POINT( '', ( -0.750000000000000, -22.0000000000000, 22.0000000000000 ) );
#281 = DIRECTION( '', ( -1.00000000000000, -2.16840434497101E-016, -0.000000000000000 ) );
#282 = DIRECTION( '', ( 2.16840434497101E-016, -1.00000000000000, 0.000000000000000 ) );
#283 = SURFACE_STYLE_FILL_AREA( #339 );
#284 = ORIENTED_EDGE( '', *, *, #330, .F. );
#285 = ORIENTED_EDGE( '', *, *, #314, .F. );
#286 = ORIENTED_EDGE( '', *, *, #340, .F. );
#287 = ORIENTED_EDGE( '', *, *, #303, .F. );
#288 = ORIENTED_EDGE( '', *, *, #336, .F. );
#289 = ORIENTED_EDGE( '', *, *, #333, .F. );
#290 = CARTESIAN_POINT( '', ( -44.0000000000000, -4.00000000000000, 0.000000000000000 ) );
#291 = DIRECTION( '', ( 0.000000000000000, 0.000000000000000, 1.00000000000000 ) );
#292 = DIRECTION( '', ( 1.00000000000000, 0.000000000000000, 0.000000000000000 ) );
#293 = SURFACE_STYLE_FILL_AREA( #341 );
#294 = ORIENTED_EDGE( '', *, *, #338, .T. );
#295 = ORIENTED_EDGE( '', *, *, #340, .T. );
#296 = ORIENTED_EDGE( '', *, *, #317, .F. );
#297 = ORIENTED_EDGE( '', *, *, #327, .F. );
#298 = ORIENTED_EDGE( '', *, *, #304, .T. );
#299 = CARTESIAN_POINT( '', ( 0.000000000000000, 0.000000000000000, 44.0000000000000 ) );
#300 = DIRECTION( '', ( -1.00000000000000, -1.22464679914735E-016, 0.000000000000000 ) );
#301 = DIRECTION( '', ( 1.22464679914735E-016, -1.00000000000000, 0.000000000000000 ) );
#302 = FILL_AREA_STYLE( '', ( #342 ) );
#303 = EDGE_CURVE( '', #343, #344, #345, .T. );
#304 = EDGE_CURVE( '', #346, #344, #347, .T. );
#305 = EDGE_CURVE( '', #348, #346, #349, .T. );
#306 = EDGE_CURVE( '', #348, #343, #350, .T. );
#307 = FILL_AREA_STYLE( '', ( #351 ) );
#308 = EDGE_CURVE( '', #352, #352, #353, .T. );
#309 = EDGE_CURVE( '', #354, #354, #355, .T. );
#310 = FILL_AREA_STYLE( '', ( #356 ) );
#311 = EDGE_CURVE( '', #357, #357, #358, .T. );
#312 = EDGE_CURVE( '', #359, #359, #360, .T. );
#313 = FILL_AREA_STYLE( '', ( #361 ) );
#314 = EDGE_CURVE( '', #362, #363, #364, .T. );
#315 = EDGE_CURVE( '', #365, #363, #366, .T. );
#316 = EDGE_CURVE( '', #367, #365, #368, .T. );
#317 = EDGE_CURVE( '', #367, #362, #369, .T. );
#318 = FILL_AREA_STYLE( '', ( #370 ) );
#319 = EDGE_CURVE( '', #371, #371, #372, .T. );
#320 = FILL_AREA_STYLE( '', ( #373 ) );
#321 = EDGE_CURVE( '', #374, #374, #375, .T. );
#322 = EDGE_CURVE( '', #376, #376, #377, .T. );
#323 = FILL_AREA_STYLE( '', ( #378 ) );
#324 = EDGE_CURVE( '', #365, #379, #380, .T. );
#325 = EDGE_CURVE( '', #379, #381, #382, .T. );
#326 = EDGE_CURVE( '', #381, #348, #383, .T. );
#327 = EDGE_CURVE( '', #346, #367, #384, .T. );
#328 = FILL_AREA_STYLE( '', ( #385 ) );
#329 = FILL_AREA_STYLE( '', ( #386 ) );
#330 = EDGE_CURVE( '', #363, #387, #388, .T. );
#331 = EDGE_CURVE( '', #379, #387, #389, .T. );
#332 = FILL_AREA_STYLE( '', ( #390 ) );
#333 = EDGE_CURVE( '', #387, #391, #392, .T. );
#334 = EDGE_CURVE( '', #381, #391, #393, .T. );
#335 = FILL_AREA_STYLE( '', ( #394 ) );
#336 = EDGE_CURVE( '', #391, #343, #395, .T. );
#337 = FILL_AREA_STYLE( '', ( #396 ) );
#338 = EDGE_CURVE( '', #397, #397, #398, .T. );
#339 = FILL_AREA_STYLE( '', ( #399 ) );
#340 = EDGE_CURVE( '', #344, #362, #400, .T. );
#341 = FILL_AREA_STYLE( '', ( #401 ) );
#342 = FILL_AREA_STYLE_COLOUR( '', #402 );
#343 = VERTEX_POINT( '', #403 );
#344 = VERTEX_POINT( '', #404 );
#345 = LINE( '', #405, #406 );
#346 = VERTEX_POINT( '', #407 );
#347 = LINE( '', #408, #409 );
#348 = VERTEX_POINT( '', #410 );
#349 = LINE( '', #411, #412 );
#350 = LINE( '', #413, #414 );
#351 = FILL_AREA_STYLE_COLOUR( '', #415 );
#352 = VERTEX_POINT( '', #416 );
#353 = CIRCLE( '', #417, 3.25000000000000 );
#354 = VERTEX_POINT( '', #418 );
#355 = CIRCLE( '', #419, 3.25000000000000 );
#356 = FILL_AREA_STYLE_COLOUR( '', #420 );
#357 = VERTEX_POINT( '', #421 );
#358 = CIRCLE( '', #422, 6.00000000000000 );
#359 = VERTEX_POINT( '', #423 );
#360 = CIRCLE( '', #424, 6.00000000000000 );
#361 = FILL_AREA_STYLE_COLOUR( '', #425 );
#362 = VERTEX_POINT( '', #426 );
#363 = VERTEX_POINT( '', #427 );
#364 = LINE( '', #428, #429 );
#365 = VERTEX_POINT( '', #430 );
#366 = LINE( '', #431, #432 );
#367 = VERTEX_POINT( '', #433 );
#368 = LINE( '', #434, #435 );
#369 = LINE( '', #436, #437 );
#370 = FILL_AREA_STYLE_COLOUR( '', #438 );
#371 = VERTEX_POINT( '', #439 );
#372 = CIRCLE( '', #440, 3.25000000000000 );
#373 = FILL_AREA_STYLE_COLOUR( '', #441 );
#374 = VERTEX_POINT( '', #442 );
#375 = CIRCLE( '', #443, 6.00000000000000 );
#376 = VERTEX_POINT( '', #444 );
#377 = CIRCLE( '', #445, 6.00000000000000 );
#378 = FILL_AREA_STYLE_COLOUR( '', #446 );
#379 = VERTEX_POINT( '', #447 );
#380 = LINE( '', #448, #449 );
#381 = VERTEX_POINT( '', #450 );
#382 = LINE( '', #451, #452 );
#383 = LINE( '', #453, #454 );
#384 = LINE( '', #455, #456 );
#385 = FILL_AREA_STYLE_COLOUR( '', #457 );
#386 = FILL_AREA_STYLE_COLOUR( '', #458 );
#387 = VERTEX_POINT( '', #459 );
#388 = LINE( '', #460, #461 );
#389 = LINE( '', #462, #463 );
#390 = FILL_AREA_STYLE_COLOUR( '', #464 );
#391 = VERTEX_POINT( '', #465 );
#392 = LINE( '', #466, #467 );
#393 = LINE( '', #468, #469 );
#394 = FILL_AREA_STYLE_COLOUR( '', #470 );
#395 = LINE( '', #471, #472 );
#396 = FILL_AREA_STYLE_COLOUR( '', #473 );
#397 = VERTEX_POINT( '', #474 );
#398 = CIRCLE( '', #475, 3.25000000000000 );
#399 = FILL_AREA_STYLE_COLOUR( '', #476 );
#400 = LINE( '', #477, #478 );
#401 = FILL_AREA_STYLE_COLOUR( '', #479 );
#402 = COLOUR_RGB( '', 0.686274528503418, 0.768627464771271, 0.866666674613953 );
#403 = CARTESIAN_POINT( '', ( -4.00000000000000, -44.0000000000000, 0.000000000000000 ) );
#404 = CARTESIAN_POINT( '', ( 5.20417042793042E-015, -44.0000000000000, 0.000000000000000 ) );
#405 = CARTESIAN_POINT( '', ( -4.00000000000000, -44.0000000000000, 0.000000000000000 ) );
#406 = VECTOR( '', #480, 1000.00000000000 );
#407 = CARTESIAN_POINT( '', ( 5.20417042793042E-015, -44.0000000000000, 44.0000000000000 ) );
#408 = CARTESIAN_POINT( '', ( 5.20417042793042E-015, -44.0000000000000, 44.0000000000000 ) );
#409 = VECTOR( '', #481, 1000.00000000000 );
#410 = CARTESIAN_POINT( '', ( -4.00000000000000, -44.0000000000000, 44.0000000000000 ) );
#411 = CARTESIAN_POINT( '', ( -4.00000000000000, -44.0000000000000, 44.0000000000000 ) );
#412 = VECTOR( '', #482, 1000.00000000000 );
#413 = CARTESIAN_POINT( '', ( -4.00000000000000, -44.0000000000000, 44.0000000000000 ) );
#414 = VECTOR( '', #483, 1000.00000000000 );
#415 = COLOUR_RGB( '', 0.686274528503418, 0.768627464771271, 0.866666674613953 );
#416 = CARTESIAN_POINT( '', ( -22.0000000000000, -0.750000000000000, 18.7500000000000 ) );
#417 = AXIS2_PLACEMENT_3D( '', #484, #485, #486 );
#418 = CARTESIAN_POINT( '', ( -18.7500000000000, -2.31249522149087E-015, 22.0000000000000 ) );
#419 = AXIS2_PLACEMENT_3D( '', #487, #488, #489 );
#420 = COLOUR_RGB( '', 0.686274528503418, 0.768627464771271, 0.866666674613953 );
#421 = CARTESIAN_POINT( '', ( -3.50000000000000, -16.0000000000000, 22.0000000000000 ) );
#422 = AXIS2_PLACEMENT_3D( '', #490, #491, #492 );
#423 = CARTESIAN_POINT( '', ( -4.00000000000000, -28.0000000000000, 22.0000000000000 ) );
#424 = AXIS2_PLACEMENT_3D( '', #493, #494, #495 );
#425 = COLOUR_RGB( '', 0.686274528503418, 0.768627464771271, 0.866666674613953 );
#426 = CARTESIAN_POINT( '', ( 0.000000000000000, 0.000000000000000, 0.000000000000000 ) );
#427 = CARTESIAN_POINT( '', ( -44.0000000000000, -5.38844591624835E-015, 0.000000000000000 ) );
#428 = CARTESIAN_POINT( '', ( 0.000000000000000, 0.000000000000000, 0.000000000000000 ) );
#429 = VECTOR( '', #496, 1000.00000000000 );
#430 = CARTESIAN_POINT( '', ( -44.0000000000000, -5.38844591624835E-015, 44.0000000000000 ) );
#431 = CARTESIAN_POINT( '', ( -44.0000000000000, -5.38844591624835E-015, 44.0000000000000 ) );
#432 = VECTOR( '', #497, 1000.00000000000 );
#433 = CARTESIAN_POINT( '', ( 0.000000000000000, 0.000000000000000, 44.0000000000000 ) );
#434 = CARTESIAN_POINT( '', ( 0.000000000000000, 0.000000000000000, 44.0000000000000 ) );
#435 = VECTOR( '', #498, 1000.00000000000 );
#436 = CARTESIAN_POINT( '', ( 0.000000000000000, 0.000000000000000, 44.0000000000000 ) );
#437 = VECTOR( '', #499, 1000.00000000000 );
#438 = COLOUR_RGB( '', 0.686274528503418, 0.768627464771271, 0.866666674613953 );
#439 = CARTESIAN_POINT( '', ( -0.749999999999999, -25.2500000000000, 22.0000000000000 ) );
#440 = AXIS2_PLACEMENT_3D( '', #500, #501, #502 );
#441 = COLOUR_RGB( '', 0.686274528503418, 0.768627464771271, 0.866666674613953 );
#442 = CARTESIAN_POINT( '', ( -22.0000000000000, -3.50000000000000, 28.0000000000000 ) );
#443 = AXIS2_PLACEMENT_3D( '', #503, #504, #505 );
#444 = CARTESIAN_POINT( '', ( -22.0000000000000, -4.00000000000000, 16.0000000000000 ) );
#445 = AXIS2_PLACEMENT_3D( '', #506, #507, #508 );
#446 = COLOUR_RGB( '', 0.686274528503418, 0.768627464771271, 0.866666674613953 );
#447 = CARTESIAN_POINT( '', ( -44.0000000000000, -4.00000000000000, 44.0000000000000 ) );
#448 = CARTESIAN_POINT( '', ( -44.0000000000000, -5.38844591624835E-015, 44.0000000000000 ) );
#449 = VECTOR( '', #509, 1000.00000000000 );
#450 = CARTESIAN_POINT( '', ( -4.00000000000000, -4.00000000000000, 44.0000000000000 ) );
#451 = CARTESIAN_POINT( '', ( -44.0000000000000, -4.00000000000000, 44.0000000000000 ) );
#452 = VECTOR( '', #510, 1000.00000000000 );
#453 = CARTESIAN_POINT( '', ( -4.00000000000000, -4.00000000000000, 44.0000000000000 ) );
#454 = VECTOR( '', #511, 1000.00000000000 );
#455 = CARTESIAN_POINT( '', ( 0.000000000000000, 0.000000000000000, 44.0000000000000 ) );
#456 = VECTOR( '', #512, 1000.00000000000 );
#457 = COLOUR_RGB( '', 0.686274528503418, 0.768627464771271, 0.866666674613953 );
#458 = COLOUR_RGB( '', 0.686274528503418, 0.768627464771271, 0.866666674613953 );
#459 = CARTESIAN_POINT( '', ( -44.0000000000000, -4.00000000000000, 0.000000000000000 ) );
#460 = CARTESIAN_POINT( '', ( -44.0000000000000, -5.38844591624835E-015, 0.000000000000000 ) );
#461 = VECTOR( '', #513, 1000.00000000000 );
#462 = CARTESIAN_POINT( '', ( -44.0000000000000, -4.00000000000000, 44.0000000000000 ) );
#463 = VECTOR( '', #514, 1000.00000000000 );
#464 = COLOUR_RGB( '', 0.686274528503418, 0.768627464771271, 0.866666674613953 );
#465 = CARTESIAN_POINT( '', ( -4.00000000000000, -4.00000000000000, 0.000000000000000 ) );
#466 = CARTESIAN_POINT( '', ( -44.0000000000000, -4.00000000000000, 0.000000000000000 ) );
#467 = VECTOR( '', #515, 1000.00000000000 );
#468 = CARTESIAN_POINT( '', ( -4.00000000000000, -4.00000000000000, 44.0000000000000 ) );
#469 = VECTOR( '', #516, 1000.00000000000 );
#470 = COLOUR_RGB( '', 0.686274528503418, 0.768627464771271, 0.866666674613953 );
#471 = CARTESIAN_POINT( '', ( -4.00000000000000, -4.00000000000000, 0.000000000000000 ) );
#472 = VECTOR( '', #517, 1000.00000000000 );
#473 = COLOUR_RGB( '', 0.686274528503418, 0.768627464771271, 0.866666674613953 );
#474 = CARTESIAN_POINT( '', ( 3.10851564093665E-015, -25.2500000000000, 22.0000000000000 ) );
#475 = AXIS2_PLACEMENT_3D( '', #518, #519, #520 );
#476 = COLOUR_RGB( '', 0.686274528503418, 0.768627464771271, 0.866666674613953 );
#477 = CARTESIAN_POINT( '', ( 0.000000000000000, 0.000000000000000, 0.000000000000000 ) );
#478 = VECTOR( '', #521, 1000.00000000000 );
#479 = COLOUR_RGB( '', 0.686274528503418, 0.768627464771271, 0.866666674613953 );
#480 = DIRECTION( '', ( 1.00000000000000, 0.000000000000000, 0.000000000000000 ) );
#481 = DIRECTION( '', ( 0.000000000000000, 0.000000000000000, -1.00000000000000 ) );
#482 = DIRECTION( '', ( 1.00000000000000, 0.000000000000000, 0.000000000000000 ) );
#483 = DIRECTION( '', ( 0.000000000000000, 0.000000000000000, -1.00000000000000 ) );
#484 = CARTESIAN_POINT( '', ( -22.0000000000000, -0.750000000000000, 22.0000000000000 ) );
#485 = DIRECTION( '', ( 0.000000000000000, 1.00000000000000, 0.000000000000000 ) );
#486 = DIRECTION( '', ( 0.000000000000000, 0.000000000000000, -1.00000000000000 ) );
#487 = CARTESIAN_POINT( '', ( -22.0000000000000, -2.71050543121376E-015, 22.0000000000000 ) );
#488 = DIRECTION( '', ( 1.22464679914735E-016, -1.00000000000000, 0.000000000000000 ) );
#489 = DIRECTION( '', ( 1.00000000000000, 1.22464679914735E-016, 0.000000000000000 ) );
#490 = CARTESIAN_POINT( '', ( -3.50000000000000, -22.0000000000000, 22.0000000000000 ) );
#491 = DIRECTION( '', ( 1.00000000000000, 2.16840434497101E-016, 0.000000000000000 ) );
#492 = DIRECTION( '', ( -2.16840434497101E-016, 1.00000000000000, 0.000000000000000 ) );
#493 = CARTESIAN_POINT( '', ( -4.00000000000000, -22.0000000000000, 22.0000000000000 ) );
#494 = DIRECTION( '', ( 1.00000000000000, 2.16840434497101E-016, 0.000000000000000 ) );
#495 = DIRECTION( '', ( 2.16840434497101E-016, -1.00000000000000, 0.000000000000000 ) );
#496 = DIRECTION( '', ( -1.00000000000000, -1.22464679914735E-016, 0.000000000000000 ) );
#497 = DIRECTION( '', ( 0.000000000000000, 0.000000000000000, -1.00000000000000 ) );
#498 = DIRECTION( '', ( -1.00000000000000, -1.22464679914735E-016, 0.000000000000000 ) );
#499 = DIRECTION( '', ( 0.000000000000000, 0.000000000000000, -1.00000000000000 ) );
#500 = CARTESIAN_POINT( '', ( -0.750000000000000, -22.0000000000000, 22.0000000000000 ) );
#501 = DIRECTION( '', ( 1.00000000000000, 2.16840434497101E-016, 0.000000000000000 ) );
#502 = DIRECTION( '', ( 2.16840434497101E-016, -1.00000000000000, 0.000000000000000 ) );
#503 = CARTESIAN_POINT( '', ( -22.0000000000000, -3.50000000000000, 22.0000000000000 ) );
#504 = DIRECTION( '', ( 0.000000000000000, 1.00000000000000, 0.000000000000000 ) );
#505 = DIRECTION( '', ( 0.000000000000000, 0.000000000000000, 1.00000000000000 ) );
#506 = CARTESIAN_POINT( '', ( -22.0000000000000, -4.00000000000000, 22.0000000000000 ) );
#507 = DIRECTION( '', ( 0.000000000000000, 1.00000000000000, 0.000000000000000 ) );
#508 = DIRECTION( '', ( 0.000000000000000, 0.000000000000000, -1.00000000000000 ) );
#509 = DIRECTION( '', ( 0.000000000000000, -1.00000000000000, 0.000000000000000 ) );
#510 = DIRECTION( '', ( 1.00000000000000, 0.000000000000000, 0.000000000000000 ) );
#511 = DIRECTION( '', ( 2.16840434497101E-016, -1.00000000000000, 0.000000000000000 ) );
#512 = DIRECTION( '', ( -1.22464679914735E-016, 1.00000000000000, 0.000000000000000 ) );
#513 = DIRECTION( '', ( 0.000000000000000, -1.00000000000000, 0.000000000000000 ) );
#514 = DIRECTION( '', ( 0.000000000000000, 0.000000000000000, -1.00000000000000 ) );
#515 = DIRECTION( '', ( 1.00000000000000, 0.000000000000000, 0.000000000000000 ) );
#516 = DIRECTION( '', ( 0.000000000000000, 0.000000000000000, -1.00000000000000 ) );
#517 = DIRECTION( '', ( 2.16840434497101E-016, -1.00000000000000, 0.000000000000000 ) );
#518 = CARTESIAN_POINT( '', ( 2.71050543121376E-015, -22.0000000000000, 22.0000000000000 ) );
#519 = DIRECTION( '', ( -1.00000000000000, -1.22464679914735E-016, 0.000000000000000 ) );
#520 = DIRECTION( '', ( 1.22464679914735E-016, -1.00000000000000, 0.000000000000000 ) );
#521 = DIRECTION( '', ( -1.22464679914735E-016, 1.00000000000000, 0.000000000000000 ) );
ENDSEC;
END-ISO-10303-21;
