ISO-10303-21;
HEADER;
/* Generated by software containing ST-Developer
 * from STEP Tools, Inc. (www.steptools.com) 
 */
/* OPTION: strings as raw bytes, not using required /X/ escapes */

FILE_DESCRIPTION(
/* description */ ('Unknown'),
/* implementation_level */ '2;1');

FILE_NAME(
/* name */ 'SA88300A-5A',
/* time_stamp */ '2018-05-03T14:15:57+02:00',
/* author */ ('Unknown'),
/* organization */ ('Unknown'),
/* preprocessor_version */ 'ST-DEVELOPER v16.7',
/* originating_system */ 'DEX',
/* authorisation */ $);

FILE_SCHEMA (('AUTOMOTIVE_DESIGN {1 0 10303 214 3 1 1}'));
ENDSEC;

DATA;
#10=PROPERTY_DEFINITION_REPRESENTATION(#14,#12);
#11=PROPERTY_DEFINITION_REPRESENTATION(#15,#13);
#12=REPRESENTATION('',(#16),#545);
#13=REPRESENTATION('',(#17),#545);
#14=PROPERTY_DEFINITION('pmi validation property','',#550);
#15=PROPERTY_DEFINITION('pmi validation property','',#550);
#16=VALUE_REPRESENTATION_ITEM('number of annotations',COUNT_MEASURE(0.));
#17=VALUE_REPRESENTATION_ITEM('number of views',COUNT_MEASURE(0.));
#18=SHAPE_REPRESENTATION_RELATIONSHIP('','',#323,#19);
#19=ADVANCED_BREP_SHAPE_REPRESENTATION('',(#321),#545);
#20=CONICAL_SURFACE('',#351,4.5,0.785398163397448);
#21=CONICAL_SURFACE('',#356,4.5,0.785398163397448);
#22=TOROIDAL_SURFACE('',#345,48.,2.);
#23=TOROIDAL_SURFACE('',#346,48.,2.);
#24=CYLINDRICAL_SURFACE('',#331,50.);
#25=CYLINDRICAL_SURFACE('',#334,50.);
#26=CYLINDRICAL_SURFACE('',#347,4.5);
#27=CYLINDRICAL_SURFACE('',#349,2.75);
#28=CYLINDRICAL_SURFACE('',#352,4.5);
#29=CYLINDRICAL_SURFACE('',#354,2.75);
#30=CIRCLE('',#328,48.);
#31=CIRCLE('',#330,48.);
#32=CIRCLE('',#332,50.);
#33=CIRCLE('',#333,50.);
#34=CIRCLE('',#335,50.);
#35=CIRCLE('',#336,50.);
#36=CIRCLE('',#338,2.75);
#37=CIRCLE('',#339,2.75);
#38=CIRCLE('',#343,4.5);
#39=CIRCLE('',#344,4.5);
#40=CIRCLE('',#348,4.5);
#41=CIRCLE('',#350,2.75);
#42=CIRCLE('',#353,4.5);
#43=CIRCLE('',#355,2.75);
#44=B_SPLINE_CURVE_WITH_KNOTS('',3,(#448,#449,#450,#451,#452),
 .UNSPECIFIED.,.F.,.F.,(4,1,4),(0.,0.00166298213721714,0.00332596427443428),
 .UNSPECIFIED.);
#45=B_SPLINE_CURVE_WITH_KNOTS('',3,(#460,#461,#462,#463,#464),
 .UNSPECIFIED.,.F.,.F.,(4,1,4),(0.,0.00166299624746536,0.00332599249493073),
 .UNSPECIFIED.);
#46=B_SPLINE_CURVE_WITH_KNOTS('',3,(#477,#478,#479,#480,#481),
 .UNSPECIFIED.,.F.,.F.,(4,1,4),(0.,0.00166299624746536,0.00332599249493072),
 .UNSPECIFIED.);
#47=B_SPLINE_CURVE_WITH_KNOTS('',3,(#493,#494,#495,#496,#497),
 .UNSPECIFIED.,.F.,.F.,(4,1,4),(0.,0.00166298213721714,0.00332596427443429),
 .UNSPECIFIED.);
#48=ORIENTED_EDGE('',*,*,#124,.F.);
#49=ORIENTED_EDGE('',*,*,#125,.T.);
#50=ORIENTED_EDGE('',*,*,#126,.T.);
#51=ORIENTED_EDGE('',*,*,#127,.T.);
#52=ORIENTED_EDGE('',*,*,#128,.F.);
#53=ORIENTED_EDGE('',*,*,#129,.T.);
#54=ORIENTED_EDGE('',*,*,#130,.F.);
#55=ORIENTED_EDGE('',*,*,#131,.F.);
#56=ORIENTED_EDGE('',*,*,#132,.T.);
#57=ORIENTED_EDGE('',*,*,#133,.T.);
#58=ORIENTED_EDGE('',*,*,#134,.F.);
#59=ORIENTED_EDGE('',*,*,#135,.T.);
#60=ORIENTED_EDGE('',*,*,#136,.F.);
#61=ORIENTED_EDGE('',*,*,#137,.F.);
#62=ORIENTED_EDGE('',*,*,#138,.T.);
#63=ORIENTED_EDGE('',*,*,#139,.T.);
#64=ORIENTED_EDGE('',*,*,#140,.F.);
#65=ORIENTED_EDGE('',*,*,#141,.T.);
#66=ORIENTED_EDGE('',*,*,#142,.T.);
#67=ORIENTED_EDGE('',*,*,#143,.T.);
#68=ORIENTED_EDGE('',*,*,#136,.T.);
#69=ORIENTED_EDGE('',*,*,#144,.T.);
#70=ORIENTED_EDGE('',*,*,#124,.T.);
#71=ORIENTED_EDGE('',*,*,#145,.T.);
#72=ORIENTED_EDGE('',*,*,#130,.T.);
#73=ORIENTED_EDGE('',*,*,#146,.T.);
#74=ORIENTED_EDGE('',*,*,#140,.T.);
#75=ORIENTED_EDGE('',*,*,#147,.T.);
#76=ORIENTED_EDGE('',*,*,#142,.F.);
#77=ORIENTED_EDGE('',*,*,#148,.T.);
#78=ORIENTED_EDGE('',*,*,#128,.T.);
#79=ORIENTED_EDGE('',*,*,#149,.T.);
#80=ORIENTED_EDGE('',*,*,#126,.F.);
#81=ORIENTED_EDGE('',*,*,#150,.T.);
#82=ORIENTED_EDGE('',*,*,#134,.T.);
#83=ORIENTED_EDGE('',*,*,#151,.T.);
#84=ORIENTED_EDGE('',*,*,#152,.T.);
#85=ORIENTED_EDGE('',*,*,#153,.T.);
#86=ORIENTED_EDGE('',*,*,#127,.F.);
#87=ORIENTED_EDGE('',*,*,#151,.F.);
#88=ORIENTED_EDGE('',*,*,#143,.F.);
#89=ORIENTED_EDGE('',*,*,#149,.F.);
#90=ORIENTED_EDGE('',*,*,#145,.F.);
#91=ORIENTED_EDGE('',*,*,#133,.F.);
#92=ORIENTED_EDGE('',*,*,#154,.T.);
#93=ORIENTED_EDGE('',*,*,#137,.T.);
#94=ORIENTED_EDGE('',*,*,#147,.F.);
#95=ORIENTED_EDGE('',*,*,#139,.F.);
#96=ORIENTED_EDGE('',*,*,#155,.T.);
#97=ORIENTED_EDGE('',*,*,#131,.T.);
#98=ORIENTED_EDGE('',*,*,#156,.T.);
#99=ORIENTED_EDGE('',*,*,#157,.T.);
#100=ORIENTED_EDGE('',*,*,#132,.F.);
#101=ORIENTED_EDGE('',*,*,#155,.F.);
#102=ORIENTED_EDGE('',*,*,#138,.F.);
#103=ORIENTED_EDGE('',*,*,#154,.F.);
#104=ORIENTED_EDGE('',*,*,#129,.F.);
#105=ORIENTED_EDGE('',*,*,#148,.F.);
#106=ORIENTED_EDGE('',*,*,#141,.F.);
#107=ORIENTED_EDGE('',*,*,#146,.F.);
#108=ORIENTED_EDGE('',*,*,#135,.F.);
#109=ORIENTED_EDGE('',*,*,#150,.F.);
#110=ORIENTED_EDGE('',*,*,#125,.F.);
#111=ORIENTED_EDGE('',*,*,#144,.F.);
#112=ORIENTED_EDGE('',*,*,#158,.T.);
#113=ORIENTED_EDGE('',*,*,#157,.F.);
#114=ORIENTED_EDGE('',*,*,#159,.F.);
#115=ORIENTED_EDGE('',*,*,#153,.F.);
#116=ORIENTED_EDGE('',*,*,#158,.F.);
#117=ORIENTED_EDGE('',*,*,#159,.T.);
#118=ORIENTED_EDGE('',*,*,#160,.T.);
#119=ORIENTED_EDGE('',*,*,#156,.F.);
#120=ORIENTED_EDGE('',*,*,#161,.F.);
#121=ORIENTED_EDGE('',*,*,#152,.F.);
#122=ORIENTED_EDGE('',*,*,#160,.F.);
#123=ORIENTED_EDGE('',*,*,#161,.T.);
#124=EDGE_CURVE('',#162,#163,#190,.T.);
#125=EDGE_CURVE('',#162,#164,#44,.T.);
#126=EDGE_CURVE('',#164,#165,#191,.T.);
#127=EDGE_CURVE('',#165,#166,#192,.T.);
#128=EDGE_CURVE('',#167,#166,#193,.T.);
#129=EDGE_CURVE('',#167,#168,#45,.T.);
#130=EDGE_CURVE('',#169,#168,#194,.T.);
#131=EDGE_CURVE('',#170,#169,#195,.T.);
#132=EDGE_CURVE('',#170,#171,#196,.T.);
#133=EDGE_CURVE('',#171,#163,#197,.T.);
#134=EDGE_CURVE('',#172,#173,#198,.T.);
#135=EDGE_CURVE('',#172,#174,#46,.T.);
#136=EDGE_CURVE('',#175,#174,#199,.T.);
#137=EDGE_CURVE('',#176,#175,#200,.T.);
#138=EDGE_CURVE('',#176,#177,#201,.T.);
#139=EDGE_CURVE('',#177,#178,#202,.T.);
#140=EDGE_CURVE('',#179,#178,#203,.T.);
#141=EDGE_CURVE('',#179,#180,#47,.T.);
#142=EDGE_CURVE('',#180,#181,#204,.T.);
#143=EDGE_CURVE('',#181,#173,#205,.T.);
#144=EDGE_CURVE('',#174,#162,#30,.T.);
#145=EDGE_CURVE('',#163,#175,#206,.T.);
#146=EDGE_CURVE('',#168,#179,#31,.T.);
#147=EDGE_CURVE('',#178,#169,#207,.T.);
#148=EDGE_CURVE('',#180,#167,#32,.F.);
#149=EDGE_CURVE('',#166,#181,#33,.T.);
#150=EDGE_CURVE('',#164,#172,#34,.F.);
#151=EDGE_CURVE('',#173,#165,#35,.T.);
#152=EDGE_CURVE('',#182,#182,#36,.T.);
#153=EDGE_CURVE('',#183,#183,#37,.T.);
#154=EDGE_CURVE('',#171,#176,#208,.T.);
#155=EDGE_CURVE('',#177,#170,#209,.T.);
#156=EDGE_CURVE('',#184,#184,#38,.T.);
#157=EDGE_CURVE('',#185,#185,#39,.T.);
#158=EDGE_CURVE('',#186,#186,#40,.T.);
#159=EDGE_CURVE('',#187,#187,#41,.T.);
#160=EDGE_CURVE('',#188,#188,#42,.T.);
#161=EDGE_CURVE('',#189,#189,#43,.T.);
#162=VERTEX_POINT('',#446);
#163=VERTEX_POINT('',#447);
#164=VERTEX_POINT('',#453);
#165=VERTEX_POINT('',#455);
#166=VERTEX_POINT('',#457);
#167=VERTEX_POINT('',#459);
#168=VERTEX_POINT('',#465);
#169=VERTEX_POINT('',#467);
#170=VERTEX_POINT('',#469);
#171=VERTEX_POINT('',#471);
#172=VERTEX_POINT('',#475);
#173=VERTEX_POINT('',#476);
#174=VERTEX_POINT('',#482);
#175=VERTEX_POINT('',#484);
#176=VERTEX_POINT('',#486);
#177=VERTEX_POINT('',#488);
#178=VERTEX_POINT('',#490);
#179=VERTEX_POINT('',#492);
#180=VERTEX_POINT('',#498);
#181=VERTEX_POINT('',#500);
#182=VERTEX_POINT('',#516);
#183=VERTEX_POINT('',#518);
#184=VERTEX_POINT('',#525);
#185=VERTEX_POINT('',#527);
#186=VERTEX_POINT('',#532);
#187=VERTEX_POINT('',#535);
#188=VERTEX_POINT('',#539);
#189=VERTEX_POINT('',#542);
#190=LINE('',#445,#210);
#191=LINE('',#454,#211);
#192=LINE('',#456,#212);
#193=LINE('',#458,#213);
#194=LINE('',#466,#214);
#195=LINE('',#468,#215);
#196=LINE('',#470,#216);
#197=LINE('',#472,#217);
#198=LINE('',#474,#218);
#199=LINE('',#483,#219);
#200=LINE('',#485,#220);
#201=LINE('',#487,#221);
#202=LINE('',#489,#222);
#203=LINE('',#491,#223);
#204=LINE('',#499,#224);
#205=LINE('',#501,#225);
#206=LINE('',#504,#226);
#207=LINE('',#507,#227);
#208=LINE('',#520,#228);
#209=LINE('',#522,#229);
#210=VECTOR('',#361,1000.);
#211=VECTOR('',#362,1000.);
#212=VECTOR('',#363,1000.);
#213=VECTOR('',#364,1000.);
#214=VECTOR('',#365,1000.);
#215=VECTOR('',#366,1000.);
#216=VECTOR('',#367,1000.);
#217=VECTOR('',#368,1000.);
#218=VECTOR('',#371,1000.);
#219=VECTOR('',#372,1000.);
#220=VECTOR('',#373,1000.);
#221=VECTOR('',#374,1000.);
#222=VECTOR('',#375,1000.);
#223=VECTOR('',#376,1000.);
#224=VECTOR('',#377,1000.);
#225=VECTOR('',#378,1000.);
#226=VECTOR('',#383,1000.);
#227=VECTOR('',#388,1000.);
#228=VECTOR('',#409,1000.);
#229=VECTOR('',#412,1000.);
#230=EDGE_LOOP('',(#48,#49,#50,#51,#52,#53,#54,#55,#56,#57));
#231=EDGE_LOOP('',(#58,#59,#60,#61,#62,#63,#64,#65,#66,#67));
#232=EDGE_LOOP('',(#68,#69,#70,#71));
#233=EDGE_LOOP('',(#72,#73,#74,#75));
#234=EDGE_LOOP('',(#76,#77,#78,#79));
#235=EDGE_LOOP('',(#80,#81,#82,#83));
#236=EDGE_LOOP('',(#84));
#237=EDGE_LOOP('',(#85));
#238=EDGE_LOOP('',(#86,#87,#88,#89));
#239=EDGE_LOOP('',(#90,#91,#92,#93));
#240=EDGE_LOOP('',(#94,#95,#96,#97));
#241=EDGE_LOOP('',(#98));
#242=EDGE_LOOP('',(#99));
#243=EDGE_LOOP('',(#100,#101,#102,#103));
#244=EDGE_LOOP('',(#104,#105,#106,#107));
#245=EDGE_LOOP('',(#108,#109,#110,#111));
#246=EDGE_LOOP('',(#112));
#247=EDGE_LOOP('',(#113));
#248=EDGE_LOOP('',(#114));
#249=EDGE_LOOP('',(#115));
#250=EDGE_LOOP('',(#116));
#251=EDGE_LOOP('',(#117));
#252=EDGE_LOOP('',(#118));
#253=EDGE_LOOP('',(#119));
#254=EDGE_LOOP('',(#120));
#255=EDGE_LOOP('',(#121));
#256=EDGE_LOOP('',(#122));
#257=EDGE_LOOP('',(#123));
#258=FACE_BOUND('',#230,.T.);
#259=FACE_BOUND('',#231,.T.);
#260=FACE_BOUND('',#232,.T.);
#261=FACE_BOUND('',#233,.T.);
#262=FACE_BOUND('',#234,.T.);
#263=FACE_BOUND('',#235,.T.);
#264=FACE_BOUND('',#236,.T.);
#265=FACE_BOUND('',#237,.T.);
#266=FACE_BOUND('',#238,.T.);
#267=FACE_BOUND('',#239,.T.);
#268=FACE_BOUND('',#240,.T.);
#269=FACE_BOUND('',#241,.T.);
#270=FACE_BOUND('',#242,.T.);
#271=FACE_BOUND('',#243,.T.);
#272=FACE_BOUND('',#244,.T.);
#273=FACE_BOUND('',#245,.T.);
#274=FACE_BOUND('',#246,.T.);
#275=FACE_BOUND('',#247,.T.);
#276=FACE_BOUND('',#248,.T.);
#277=FACE_BOUND('',#249,.T.);
#278=FACE_BOUND('',#250,.T.);
#279=FACE_BOUND('',#251,.T.);
#280=FACE_BOUND('',#252,.T.);
#281=FACE_BOUND('',#253,.T.);
#282=FACE_BOUND('',#254,.T.);
#283=FACE_BOUND('',#255,.T.);
#284=FACE_BOUND('',#256,.T.);
#285=FACE_BOUND('',#257,.T.);
#286=PLANE('',#325);
#287=PLANE('',#326);
#288=PLANE('',#327);
#289=PLANE('',#329);
#290=PLANE('',#337);
#291=PLANE('',#340);
#292=PLANE('',#341);
#293=PLANE('',#342);
#294=ADVANCED_FACE('',(#258),#286,.F.);
#295=ADVANCED_FACE('',(#259),#287,.F.);
#296=ADVANCED_FACE('',(#260),#288,.T.);
#297=ADVANCED_FACE('',(#261),#289,.T.);
#298=ADVANCED_FACE('',(#262),#24,.T.);
#299=ADVANCED_FACE('',(#263),#25,.T.);
#300=ADVANCED_FACE('',(#264,#265,#266),#290,.F.);
#301=ADVANCED_FACE('',(#267),#291,.T.);
#302=ADVANCED_FACE('',(#268),#292,.T.);
#303=ADVANCED_FACE('',(#269,#270,#271),#293,.F.);
#304=ADVANCED_FACE('',(#272),#22,.T.);
#305=ADVANCED_FACE('',(#273),#23,.T.);
#306=ADVANCED_FACE('',(#274,#275),#26,.F.);
#307=ADVANCED_FACE('',(#276,#277),#27,.F.);
#308=ADVANCED_FACE('',(#278,#279),#20,.F.);
#309=ADVANCED_FACE('',(#280,#281),#28,.F.);
#310=ADVANCED_FACE('',(#282,#283),#29,.F.);
#311=ADVANCED_FACE('',(#284,#285),#21,.F.);
#312=CLOSED_SHELL('',(#294,#295,#296,#297,#298,#299,#300,#301,#302,#303,
#304,#305,#306,#307,#308,#309,#310,#311));
#313=STYLED_ITEM('',(#314),#321);
#314=PRESENTATION_STYLE_ASSIGNMENT((#315));
#315=SURFACE_STYLE_USAGE(.BOTH.,#316);
#316=SURFACE_SIDE_STYLE('',(#317));
#317=SURFACE_STYLE_FILL_AREA(#318);
#318=FILL_AREA_STYLE('',(#319));
#319=FILL_AREA_STYLE_COLOUR('',#320);
#320=COLOUR_RGB('',0.980000019073486,0.980000019073486,0.980000019073486);
#321=MANIFOLD_SOLID_BREP('',#312);
#322=SHAPE_DEFINITION_REPRESENTATION(#550,#323);
#323=SHAPE_REPRESENTATION('SA88300A-5A',(#324),#545);
#324=AXIS2_PLACEMENT_3D('',#443,#357,#358);
#325=AXIS2_PLACEMENT_3D('',#444,#359,#360);
#326=AXIS2_PLACEMENT_3D('',#473,#369,#370);
#327=AXIS2_PLACEMENT_3D('',#502,#379,#380);
#328=AXIS2_PLACEMENT_3D('',#503,#381,#382);
#329=AXIS2_PLACEMENT_3D('',#505,#384,#385);
#330=AXIS2_PLACEMENT_3D('',#506,#386,#387);
#331=AXIS2_PLACEMENT_3D('',#508,#389,#390);
#332=AXIS2_PLACEMENT_3D('',#509,#391,#392);
#333=AXIS2_PLACEMENT_3D('',#510,#393,#394);
#334=AXIS2_PLACEMENT_3D('',#511,#395,#396);
#335=AXIS2_PLACEMENT_3D('',#512,#397,#398);
#336=AXIS2_PLACEMENT_3D('',#513,#399,#400);
#337=AXIS2_PLACEMENT_3D('',#514,#401,#402);
#338=AXIS2_PLACEMENT_3D('',#515,#403,#404);
#339=AXIS2_PLACEMENT_3D('',#517,#405,#406);
#340=AXIS2_PLACEMENT_3D('',#519,#407,#408);
#341=AXIS2_PLACEMENT_3D('',#521,#410,#411);
#342=AXIS2_PLACEMENT_3D('',#523,#413,#414);
#343=AXIS2_PLACEMENT_3D('',#524,#415,#416);
#344=AXIS2_PLACEMENT_3D('',#526,#417,#418);
#345=AXIS2_PLACEMENT_3D('',#528,#419,#420);
#346=AXIS2_PLACEMENT_3D('',#529,#421,#422);
#347=AXIS2_PLACEMENT_3D('',#530,#423,#424);
#348=AXIS2_PLACEMENT_3D('',#531,#425,#426);
#349=AXIS2_PLACEMENT_3D('',#533,#427,#428);
#350=AXIS2_PLACEMENT_3D('',#534,#429,#430);
#351=AXIS2_PLACEMENT_3D('',#536,#431,#432);
#352=AXIS2_PLACEMENT_3D('',#537,#433,#434);
#353=AXIS2_PLACEMENT_3D('',#538,#435,#436);
#354=AXIS2_PLACEMENT_3D('',#540,#437,#438);
#355=AXIS2_PLACEMENT_3D('',#541,#439,#440);
#356=AXIS2_PLACEMENT_3D('',#543,#441,#442);
#357=DIRECTION('',(0.,0.,1.));
#358=DIRECTION('',(1.,0.,0.));
#359=DIRECTION('',(1.,6.60847038467354E-16,0.));
#360=DIRECTION('',(-6.60847038467354E-16,1.,0.));
#361=DIRECTION('',(6.60847038467354E-16,-1.,0.));
#362=DIRECTION('',(0.,0.,-1.));
#363=DIRECTION('',(6.60847038467354E-16,-1.,0.));
#364=DIRECTION('',(0.,0.,-1.));
#365=DIRECTION('',(6.60847038467354E-16,-1.,0.));
#366=DIRECTION('',(0.,0.,1.));
#367=DIRECTION('',(-2.77555756156289E-15,1.,0.));
#368=DIRECTION('',(0.,0.,1.));
#369=DIRECTION('',(-1.,0.,0.));
#370=DIRECTION('',(0.,0.,1.));
#371=DIRECTION('',(0.,0.,-1.));
#372=DIRECTION('',(0.,1.,0.));
#373=DIRECTION('',(0.,0.,1.));
#374=DIRECTION('',(2.77555756156289E-15,-1.,0.));
#375=DIRECTION('',(0.,0.,1.));
#376=DIRECTION('',(0.,1.,0.));
#377=DIRECTION('',(0.,0.,-1.));
#378=DIRECTION('',(0.,1.,0.));
#379=DIRECTION('',(0.,0.,1.));
#380=DIRECTION('',(1.,0.,0.));
#381=DIRECTION('',(0.,0.,1.));
#382=DIRECTION('',(1.,0.,0.));
#383=DIRECTION('',(1.,2.87193108800605E-15,0.));
#384=DIRECTION('',(0.,0.,1.));
#385=DIRECTION('',(1.,0.,0.));
#386=DIRECTION('',(0.,0.,1.));
#387=DIRECTION('',(1.,0.,0.));
#388=DIRECTION('',(-1.,-2.87193108800605E-15,0.));
#389=DIRECTION('',(0.,0.,-1.));
#390=DIRECTION('',(-1.,0.,0.));
#391=DIRECTION('',(0.,0.,1.));
#392=DIRECTION('',(1.,0.,0.));
#393=DIRECTION('',(0.,0.,1.));
#394=DIRECTION('',(1.,0.,0.));
#395=DIRECTION('',(0.,0.,-1.));
#396=DIRECTION('',(-1.,0.,0.));
#397=DIRECTION('',(0.,0.,1.));
#398=DIRECTION('',(1.,0.,0.));
#399=DIRECTION('',(0.,0.,1.));
#400=DIRECTION('',(1.,0.,0.));
#401=DIRECTION('',(0.,0.,1.));
#402=DIRECTION('',(1.,0.,0.));
#403=DIRECTION('',(0.,0.,1.));
#404=DIRECTION('',(1.,0.,0.));
#405=DIRECTION('',(0.,0.,1.));
#406=DIRECTION('',(1.,0.,0.));
#407=DIRECTION('',(2.87193108800605E-15,-1.,0.));
#408=DIRECTION('',(1.,2.87193108800605E-15,0.));
#409=DIRECTION('',(1.,2.87193108800605E-15,0.));
#410=DIRECTION('',(-2.87193108800605E-15,1.,0.));
#411=DIRECTION('',(-1.,-2.87193108800605E-15,0.));
#412=DIRECTION('',(-1.,-2.87193108800605E-15,0.));
#413=DIRECTION('',(0.,0.,-1.));
#414=DIRECTION('',(-1.,0.,0.));
#415=DIRECTION('',(0.,0.,-1.));
#416=DIRECTION('',(0.,-1.,0.));
#417=DIRECTION('',(0.,0.,-1.));
#418=DIRECTION('',(0.,-1.,0.));
#419=DIRECTION('',(0.,0.,1.));
#420=DIRECTION('',(1.,0.,0.));
#421=DIRECTION('',(0.,0.,1.));
#422=DIRECTION('',(1.,0.,0.));
#423=DIRECTION('',(0.,0.,-1.));
#424=DIRECTION('',(0.,-1.,0.));
#425=DIRECTION('',(0.,0.,-1.));
#426=DIRECTION('',(0.,1.,0.));
#427=DIRECTION('',(0.,0.,-1.));
#428=DIRECTION('',(0.,-1.,0.));
#429=DIRECTION('',(0.,0.,-1.));
#430=DIRECTION('',(0.,-1.,0.));
#431=DIRECTION('',(0.,0.,1.));
#432=DIRECTION('',(0.,1.,0.));
#433=DIRECTION('',(0.,0.,-1.));
#434=DIRECTION('',(0.,-1.,0.));
#435=DIRECTION('',(0.,0.,-1.));
#436=DIRECTION('',(0.,1.,0.));
#437=DIRECTION('',(0.,0.,-1.));
#438=DIRECTION('',(0.,-1.,0.));
#439=DIRECTION('',(0.,0.,-1.));
#440=DIRECTION('',(0.,-1.,0.));
#441=DIRECTION('',(0.,0.,1.));
#442=DIRECTION('',(0.,1.,0.));
#443=CARTESIAN_POINT('',(0.,0.,0.));
#444=CARTESIAN_POINT('',(0.,10.5,22.));
#445=CARTESIAN_POINT('',(0.,10.5,22.));
#446=CARTESIAN_POINT('',(1.48792729025471E-15,8.24845432657832,22.));
#447=CARTESIAN_POINT('',(-3.81639164714898E-14,7.5,22.));
#448=CARTESIAN_POINT('',(1.4879272902547E-15,8.24845432657832,22.));
#449=CARTESIAN_POINT('',(1.11651350971186E-15,8.81048117836573,22.));
#450=CARTESIAN_POINT('',(3.76782041697119E-16,9.92984984457077,21.6333961198104));
#451=CARTESIAN_POINT('',(1.09882073865724E-29,10.5,20.5643747935019));
#452=CARTESIAN_POINT('',(1.02637155992025E-29,10.5,20.));
#453=CARTESIAN_POINT('',(-4.5102810375397E-14,10.5,20.));
#454=CARTESIAN_POINT('',(-4.5102810375397E-14,10.5,22.));
#455=CARTESIAN_POINT('',(-4.5102810375397E-14,10.5,0.));
#456=CARTESIAN_POINT('',(0.,10.5,0.));
#457=CARTESIAN_POINT('',(1.38777878078145E-14,-10.5,0.));
#458=CARTESIAN_POINT('',(1.38777878078145E-14,-10.5,22.));
#459=CARTESIAN_POINT('',(1.38777878078145E-14,-10.5,20.));
#460=CARTESIAN_POINT('',(1.38777878078145E-14,-10.5,20.));
#461=CARTESIAN_POINT('',(1.38777878078145E-14,-10.5,20.5627276588964));
#462=CARTESIAN_POINT('',(1.35033985922631E-14,-9.93347069176607,21.6315943574999));
#463=CARTESIAN_POINT('',(1.27606350005048E-14,-8.80951378718361,22.));
#464=CARTESIAN_POINT('',(1.23898605175598E-14,-8.24845432657834,22.));
#465=CARTESIAN_POINT('',(1.23898605175598E-14,-8.24845432657834,22.));
#466=CARTESIAN_POINT('',(0.,10.5,22.));
#467=CARTESIAN_POINT('',(1.18952466924123E-14,-7.49999999999994,22.));
#468=CARTESIAN_POINT('',(0.,-7.5,4.99999999999999));
#469=CARTESIAN_POINT('',(0.,-7.5,4.99999999999999));
#470=CARTESIAN_POINT('',(3.46944695195361E-15,-7.5,4.99999999999999));
#471=CARTESIAN_POINT('',(-3.81639164714898E-14,7.5,4.99999999999999));
#472=CARTESIAN_POINT('',(-3.81639164714898E-14,7.5,4.99999999999999));
#473=CARTESIAN_POINT('',(45.,-10.5,22.));
#474=CARTESIAN_POINT('',(45.,10.5,22.));
#475=CARTESIAN_POINT('',(45.,10.5,20.));
#476=CARTESIAN_POINT('',(45.,10.5,0.));
#477=CARTESIAN_POINT('',(45.,10.5,20.));
#478=CARTESIAN_POINT('',(45.,10.5,20.5627276588964));
#479=CARTESIAN_POINT('',(45.,9.93347069176606,21.6315943574999));
#480=CARTESIAN_POINT('',(45.,8.80951378718362,22.));
#481=CARTESIAN_POINT('',(45.,8.24845432657835,22.));
#482=CARTESIAN_POINT('',(45.,8.24845432657834,22.));
#483=CARTESIAN_POINT('',(45.,-10.5,22.));
#484=CARTESIAN_POINT('',(45.,7.50000000000013,22.));
#485=CARTESIAN_POINT('',(45.,7.50000000000013,4.99999999999999));
#486=CARTESIAN_POINT('',(45.,7.50000000000013,4.99999999999999));
#487=CARTESIAN_POINT('',(45.,7.50000000000013,4.99999999999999));
#488=CARTESIAN_POINT('',(45.,-7.49999999999987,4.99999999999999));
#489=CARTESIAN_POINT('',(45.,-7.49999999999987,4.99999999999999));
#490=CARTESIAN_POINT('',(45.,-7.49999999999987,22.));
#491=CARTESIAN_POINT('',(45.,-10.5,22.));
#492=CARTESIAN_POINT('',(45.,-8.24845432657833,22.));
#493=CARTESIAN_POINT('',(45.,-8.24845432657833,22.));
#494=CARTESIAN_POINT('',(45.,-8.81048117836574,22.));
#495=CARTESIAN_POINT('',(45.,-9.92984984457079,21.6333961198104));
#496=CARTESIAN_POINT('',(45.,-10.5,20.5643747935019));
#497=CARTESIAN_POINT('',(45.,-10.5,20.));
#498=CARTESIAN_POINT('',(45.,-10.5,20.));
#499=CARTESIAN_POINT('',(45.,-10.5,22.));
#500=CARTESIAN_POINT('',(45.,-10.5,0.));
#501=CARTESIAN_POINT('',(45.,-10.5,0.));
#502=CARTESIAN_POINT('',(22.5,34.1514277487294,22.));
#503=CARTESIAN_POINT('',(22.5,-34.1514277487294,22.));
#504=CARTESIAN_POINT('',(-3.81639164714898E-14,7.5,22.));
#505=CARTESIAN_POINT('',(22.5,34.1514277487294,22.));
#506=CARTESIAN_POINT('',(22.5,34.1514277487294,22.));
#507=CARTESIAN_POINT('',(45.,-7.49999999999987,22.));
#508=CARTESIAN_POINT('',(22.5,34.1514277487294,22.));
#509=CARTESIAN_POINT('',(22.5,34.1514277487294,20.));
#510=CARTESIAN_POINT('',(22.5,34.1514277487294,0.));
#511=CARTESIAN_POINT('',(22.5,-34.1514277487294,22.));
#512=CARTESIAN_POINT('',(22.5,-34.1514277487294,20.));
#513=CARTESIAN_POINT('',(22.5,-34.1514277487294,0.));
#514=CARTESIAN_POINT('',(22.5,34.1514277487294,0.));
#515=CARTESIAN_POINT('',(39.5,6.08745638532721E-14,0.));
#516=CARTESIAN_POINT('',(42.25,6.08745638532721E-14,0.));
#517=CARTESIAN_POINT('',(5.49999999999998,6.08745638532721E-14,0.));
#518=CARTESIAN_POINT('',(8.24999999999998,6.08745638532721E-14,0.));
#519=CARTESIAN_POINT('',(-3.81639164714898E-14,7.5,4.99999999999999));
#520=CARTESIAN_POINT('',(-3.81639164714898E-14,7.5,4.99999999999999));
#521=CARTESIAN_POINT('',(45.,-7.49999999999987,4.99999999999999));
#522=CARTESIAN_POINT('',(45.,-7.49999999999987,4.99999999999999));
#523=CARTESIAN_POINT('',(-3.81639164714898E-14,7.5,4.99999999999999));
#524=CARTESIAN_POINT('',(39.5,6.0874173665543E-14,4.99999999999999));
#525=CARTESIAN_POINT('',(39.5,-4.49999999999994,4.99999999999999));
#526=CARTESIAN_POINT('',(5.49999999999998,6.0874173665543E-14,4.99999999999999));
#527=CARTESIAN_POINT('',(5.49999999999998,-4.49999999999994,4.99999999999999));
#528=CARTESIAN_POINT('',(22.5,34.1514277487294,20.));
#529=CARTESIAN_POINT('',(22.5,-34.1514277487294,20.));
#530=CARTESIAN_POINT('',(5.49999999999998,6.0874173665543E-14,4.99999999999999));
#531=CARTESIAN_POINT('',(5.49999999999998,6.08745638532721E-14,3.99999999999999));
#532=CARTESIAN_POINT('',(5.49999999999998,4.50000000000006,3.99999999999999));
#533=CARTESIAN_POINT('',(5.49999999999998,6.08745638532721E-14,2.24999999999999));
#534=CARTESIAN_POINT('',(5.49999999999998,6.08745638532721E-14,2.24999999999999));
#535=CARTESIAN_POINT('',(5.49999999999998,-2.74999999999994,2.24999999999999));
#536=CARTESIAN_POINT('',(5.49999999999998,6.08745638532721E-14,3.99999999999999));
#537=CARTESIAN_POINT('',(39.5,6.0874173665543E-14,4.99999999999999));
#538=CARTESIAN_POINT('',(39.5,6.08745638532721E-14,3.99999999999999));
#539=CARTESIAN_POINT('',(39.5,4.50000000000006,3.99999999999999));
#540=CARTESIAN_POINT('',(39.5,6.08745638532721E-14,2.24999999999999));
#541=CARTESIAN_POINT('',(39.5,6.08745638532721E-14,2.24999999999999));
#542=CARTESIAN_POINT('',(39.5,-2.74999999999994,2.24999999999999));
#543=CARTESIAN_POINT('',(39.5,6.08745638532721E-14,3.99999999999999));
#544=MECHANICAL_DESIGN_GEOMETRIC_PRESENTATION_REPRESENTATION('',(#313),
#545);
#545=(
GEOMETRIC_REPRESENTATION_CONTEXT(3)
GLOBAL_UNCERTAINTY_ASSIGNED_CONTEXT((#546))
GLOBAL_UNIT_ASSIGNED_CONTEXT((#549,#548,#547))
REPRESENTATION_CONTEXT('SA88300A-5A','TOP_LEVEL_ASSEMBLY_PART')
);
#546=UNCERTAINTY_MEASURE_WITH_UNIT(LENGTH_MEASURE(0.005),#549,
'DISTANCE_ACCURACY_VALUE','Maximum Tolerance applied to model');
#547=(
NAMED_UNIT(*)
SI_UNIT($,.STERADIAN.)
SOLID_ANGLE_UNIT()
);
#548=(
NAMED_UNIT(*)
PLANE_ANGLE_UNIT()
SI_UNIT($,.RADIAN.)
);
#549=(
LENGTH_UNIT()
NAMED_UNIT(*)
SI_UNIT(.MILLI.,.METRE.)
);
#550=PRODUCT_DEFINITION_SHAPE('','',#551);
#551=PRODUCT_DEFINITION('','',#553,#552);
#552=PRODUCT_DEFINITION_CONTEXT('',#559,'design');
#553=PRODUCT_DEFINITION_FORMATION_WITH_SPECIFIED_SOURCE('','',#555,
 .NOT_KNOWN.);
#554=PRODUCT_RELATED_PRODUCT_CATEGORY('','',(#555));
#555=PRODUCT('SA88300A-5A','SA88300A-5A','SA88300A-5A',(#557));
#556=PRODUCT_CATEGORY('','');
#557=PRODUCT_CONTEXT('',#559,'mechanical');
#558=APPLICATION_PROTOCOL_DEFINITION('international standard',
'automotive_design',2010,#559);
#559=APPLICATION_CONTEXT(
'core data for automotive mechanical design processes');
ENDSEC;
END-ISO-10303-21;
