ISO-10303-21;
HEADER;
FILE_DESCRIPTION( ( 'Unknown' ), '1' );
FILE_NAME( 'P:/Solid_Edge_3/T-Stueck_Gl_Gl_Gl/Deckel_44x44x4_M6l.stp', 'Unknown', ( 'Unknown' ), ( 'Unknown' ), 'PSStep 16.0.42', 'Unknown', '  ' );
FILE_SCHEMA( ( 'AUTOMOTIVE_DESIGN { 1 0 10303 214 1 1 1 1 }' ) );
ENDSEC;
DATA;
#1 = MECHANICAL_DESIGN_GEOMETRIC_PRESENTATION_REPRESENTATION( ' ', ( #10, #11, #12, #13, #14, #15, #16, #17, #18, #19, #20, #21 ), #6 );
#2 = PRODUCT_DEFINITION_CONTEXT( '', #22, 'design' );
#3 = APPLICATION_PROTOCOL_DEFINITION( 'international standard', 'automotive_design', 2001, #22 );
#4 = PRODUCT_CATEGORY_RELATIONSHIP( 'NONE', 'NONE', #23, #24 );
#5 = SHAPE_DEFINITION_REPRESENTATION( #25, #26 );
#6 =  ( GEOMETRIC_REPRESENTATION_CONTEXT( 3 )GLOBAL_UNCERTAINTY_ASSIGNED_CONTEXT( ( #29 ) )GLOBAL_UNIT_ASSIGNED_CONTEXT( ( #31, #32, #33 ) )REPRESENTATION_CONTEXT( 'NONE', 'WORKSPACE' ) );
#10 = STYLED_ITEM( '', ( #35 ), #36 );
#11 = STYLED_ITEM( '', ( #37 ), #38 );
#12 = STYLED_ITEM( '', ( #39 ), #40 );
#13 = STYLED_ITEM( '', ( #41 ), #42 );
#14 = STYLED_ITEM( '', ( #43 ), #44 );
#15 = STYLED_ITEM( '', ( #45 ), #46 );
#16 = STYLED_ITEM( '', ( #47 ), #48 );
#17 = STYLED_ITEM( '', ( #49 ), #50 );
#18 = STYLED_ITEM( '', ( #51 ), #52 );
#19 = STYLED_ITEM( '', ( #53 ), #54 );
#20 = STYLED_ITEM( '', ( #55 ), #56 );
#21 = STYLED_ITEM( '', ( #57 ), #58 );
#22 = APPLICATION_CONTEXT( 'core data for automotive mechanical design processes' );
#23 = PRODUCT_CATEGORY( 'part', 'NONE' );
#24 = PRODUCT_RELATED_PRODUCT_CATEGORY( 'detail', ' ', ( #59 ) );
#25 = PRODUCT_DEFINITION_SHAPE( 'NONE', 'NONE', #60 );
#26 = ADVANCED_BREP_SHAPE_REPRESENTATION( '1', ( #61, #62 ), #6 );
#29 = UNCERTAINTY_MEASURE_WITH_UNIT( LENGTH_MEASURE( 0.00100000000000000 ), #31, '', '' );
#31 =  ( CONVERSION_BASED_UNIT( 'MILLIMETRE', #65 )LENGTH_UNIT(  )NAMED_UNIT( #68 ) );
#32 =  ( NAMED_UNIT( #70 )PLANE_ANGLE_UNIT(  )SI_UNIT( $, .RADIAN. ) );
#33 =  ( NAMED_UNIT( #70 )SI_UNIT( $, .STERADIAN. )SOLID_ANGLE_UNIT(  ) );
#35 = PRESENTATION_STYLE_ASSIGNMENT( ( #76 ) );
#36 = ADVANCED_FACE( '', ( #77, #78 ), #79, .T. );
#37 = PRESENTATION_STYLE_ASSIGNMENT( ( #80 ) );
#38 = ADVANCED_FACE( '', ( #81 ), #82, .F. );
#39 = PRESENTATION_STYLE_ASSIGNMENT( ( #83 ) );
#40 = ADVANCED_FACE( '', ( #84, #85 ), #86, .F. );
#41 = PRESENTATION_STYLE_ASSIGNMENT( ( #87 ) );
#42 = ADVANCED_FACE( '', ( #88, #89 ), #90, .F. );
#43 = PRESENTATION_STYLE_ASSIGNMENT( ( #91 ) );
#44 = ADVANCED_FACE( '', ( #92, #93 ), #94, .F. );
#45 = PRESENTATION_STYLE_ASSIGNMENT( ( #95 ) );
#46 = ADVANCED_FACE( '', ( #96 ), #97, .F. );
#47 = PRESENTATION_STYLE_ASSIGNMENT( ( #98 ) );
#48 = ADVANCED_FACE( '', ( #99 ), #100, .F. );
#49 = PRESENTATION_STYLE_ASSIGNMENT( ( #101 ) );
#50 = ADVANCED_FACE( '', ( #102 ), #103, .F. );
#51 = PRESENTATION_STYLE_ASSIGNMENT( ( #104 ) );
#52 = ADVANCED_FACE( '', ( #105, #106 ), #107, .F. );
#53 = PRESENTATION_STYLE_ASSIGNMENT( ( #108 ) );
#54 = ADVANCED_FACE( '', ( #109 ), #110, .T. );
#55 = PRESENTATION_STYLE_ASSIGNMENT( ( #111 ) );
#56 = ADVANCED_FACE( '', ( #112, #113 ), #114, .F. );
#57 = PRESENTATION_STYLE_ASSIGNMENT( ( #115 ) );
#58 = ADVANCED_FACE( '', ( #116, #117 ), #118, .T. );
#59 = PRODUCT( '1', '1', 'PART-1-DESC', ( #119 ) );
#60 = PRODUCT_DEFINITION( 'NONE', 'NONE', #120, #2 );
#61 = MANIFOLD_SOLID_BREP( '1', #121 );
#62 = AXIS2_PLACEMENT_3D( '', #122, #123, #124 );
#65 = LENGTH_MEASURE_WITH_UNIT( LENGTH_MEASURE( 1.00000000000000 ), #125 );
#68 = DIMENSIONAL_EXPONENTS( 1.00000000000000, 0.000000000000000, 0.000000000000000, 0.000000000000000, 0.000000000000000, 0.000000000000000, 0.000000000000000 );
#70 = DIMENSIONAL_EXPONENTS( 0.000000000000000, 0.000000000000000, 0.000000000000000, 0.000000000000000, 0.000000000000000, 0.000000000000000, 0.000000000000000 );
#76 = SURFACE_STYLE_USAGE( .BOTH., #126 );
#77 = FACE_OUTER_BOUND( '', #127, .T. );
#78 = FACE_OUTER_BOUND( '', #128, .T. );
#79 = CYLINDRICAL_SURFACE( '', #129, 5.00000000000000 );
#80 = SURFACE_STYLE_USAGE( .BOTH., #130 );
#81 = FACE_OUTER_BOUND( '', #131, .T. );
#82 = PLANE( '', #132 );
#83 = SURFACE_STYLE_USAGE( .BOTH., #133 );
#84 = FACE_OUTER_BOUND( '', #134, .T. );
#85 = FACE_BOUND( '', #135, .T. );
#86 = CONICAL_SURFACE( '', #136, 2.45850000000000, 1.02974425867665 );
#87 = SURFACE_STYLE_USAGE( .BOTH., #137 );
#88 = FACE_OUTER_BOUND( '', #138, .T. );
#89 = FACE_OUTER_BOUND( '', #139, .T. );
#90 = CYLINDRICAL_SURFACE( '', #140, 2.45850000000000 );
#91 = SURFACE_STYLE_USAGE( .BOTH., #141 );
#92 = FACE_BOUND( '', #142, .T. );
#93 = FACE_OUTER_BOUND( '', #143, .T. );
#94 = PLANE( '', #144 );
#95 = SURFACE_STYLE_USAGE( .BOTH., #145 );
#96 = FACE_OUTER_BOUND( '', #146, .T. );
#97 = PLANE( '', #147 );
#98 = SURFACE_STYLE_USAGE( .BOTH., #148 );
#99 = FACE_OUTER_BOUND( '', #149, .T. );
#100 = PLANE( '', #150 );
#101 = SURFACE_STYLE_USAGE( .BOTH., #151 );
#102 = FACE_OUTER_BOUND( '', #152, .T. );
#103 = PLANE( '', #153 );
#104 = SURFACE_STYLE_USAGE( .BOTH., #154 );
#105 = FACE_OUTER_BOUND( '', #155, .T. );
#106 = FACE_OUTER_BOUND( '', #156, .T. );
#107 = CYLINDRICAL_SURFACE( '', #157, 2.45850000000000 );
#108 = SURFACE_STYLE_USAGE( .BOTH., #158 );
#109 = FACE_OUTER_BOUND( '', #159, .T. );
#110 = PLANE( '', #160 );
#111 = SURFACE_STYLE_USAGE( .BOTH., #161 );
#112 = FACE_BOUND( '', #162, .T. );
#113 = FACE_OUTER_BOUND( '', #163, .T. );
#114 = PLANE( '', #164 );
#115 = SURFACE_STYLE_USAGE( .BOTH., #165 );
#116 = FACE_BOUND( '', #166, .T. );
#117 = FACE_OUTER_BOUND( '', #167, .T. );
#118 = CONICAL_SURFACE( '', #168, 5.00000000000000, 0.785398163397448 );
#119 = PRODUCT_CONTEXT( '', #22, 'mechanical' );
#120 = PRODUCT_DEFINITION_FORMATION_WITH_SPECIFIED_SOURCE( ' ', 'NONE', #59, .NOT_KNOWN. );
#121 = CLOSED_SHELL( '', ( #40, #52, #42, #50, #56, #36, #54, #44, #46, #48, #38, #58 ) );
#122 = CARTESIAN_POINT( '', ( 0.000000000000000, 0.000000000000000, 0.000000000000000 ) );
#123 = DIRECTION( '', ( 0.000000000000000, 0.000000000000000, 1.00000000000000 ) );
#124 = DIRECTION( '', ( 1.00000000000000, 0.000000000000000, 0.000000000000000 ) );
#125 =  ( LENGTH_UNIT(  )NAMED_UNIT( #68 )SI_UNIT( .MILLI., .METRE. ) );
#126 = SURFACE_SIDE_STYLE( '', ( #170 ) );
#127 = EDGE_LOOP( '', ( #171 ) );
#128 = EDGE_LOOP( '', ( #172 ) );
#129 = AXIS2_PLACEMENT_3D( '', #173, #174, #175 );
#130 = SURFACE_SIDE_STYLE( '', ( #176 ) );
#131 = EDGE_LOOP( '', ( #177, #178, #179, #180 ) );
#132 = AXIS2_PLACEMENT_3D( '', #181, #182, #183 );
#133 = SURFACE_SIDE_STYLE( '', ( #184 ) );
#134 = EDGE_LOOP( '', ( #185 ) );
#135 = VERTEX_LOOP( '', #186 );
#136 = AXIS2_PLACEMENT_3D( '', #187, #188, #189 );
#137 = SURFACE_SIDE_STYLE( '', ( #190 ) );
#138 = EDGE_LOOP( '', ( #191 ) );
#139 = EDGE_LOOP( '', ( #192 ) );
#140 = AXIS2_PLACEMENT_3D( '', #193, #194, #195 );
#141 = SURFACE_SIDE_STYLE( '', ( #196 ) );
#142 = EDGE_LOOP( '', ( #197 ) );
#143 = EDGE_LOOP( '', ( #198, #199, #200, #201 ) );
#144 = AXIS2_PLACEMENT_3D( '', #202, #203, #204 );
#145 = SURFACE_SIDE_STYLE( '', ( #205 ) );
#146 = EDGE_LOOP( '', ( #206, #207, #208, #209 ) );
#147 = AXIS2_PLACEMENT_3D( '', #210, #211, #212 );
#148 = SURFACE_SIDE_STYLE( '', ( #213 ) );
#149 = EDGE_LOOP( '', ( #214, #215, #216, #217 ) );
#150 = AXIS2_PLACEMENT_3D( '', #218, #219, #220 );
#151 = SURFACE_SIDE_STYLE( '', ( #221 ) );
#152 = EDGE_LOOP( '', ( #222, #223, #224, #225 ) );
#153 = AXIS2_PLACEMENT_3D( '', #226, #227, #228 );
#154 = SURFACE_SIDE_STYLE( '', ( #229 ) );
#155 = EDGE_LOOP( '', ( #230 ) );
#156 = EDGE_LOOP( '', ( #231 ) );
#157 = AXIS2_PLACEMENT_3D( '', #232, #233, #234 );
#158 = SURFACE_SIDE_STYLE( '', ( #235 ) );
#159 = EDGE_LOOP( '', ( #236, #237, #238, #239 ) );
#160 = AXIS2_PLACEMENT_3D( '', #240, #241, #242 );
#161 = SURFACE_SIDE_STYLE( '', ( #243 ) );
#162 = EDGE_LOOP( '', ( #244 ) );
#163 = EDGE_LOOP( '', ( #245 ) );
#164 = AXIS2_PLACEMENT_3D( '', #246, #247, #248 );
#165 = SURFACE_SIDE_STYLE( '', ( #249 ) );
#166 = EDGE_LOOP( '', ( #250 ) );
#167 = EDGE_LOOP( '', ( #251 ) );
#168 = AXIS2_PLACEMENT_3D( '', #252, #253, #254 );
#170 = SURFACE_STYLE_FILL_AREA( #255 );
#171 = ORIENTED_EDGE( '', *, *, #256, .T. );
#172 = ORIENTED_EDGE( '', *, *, #257, .F. );
#173 = CARTESIAN_POINT( '', ( -4.42342456391589E-015, -9.50000000000000, -4.33680868994202E-016 ) );
#174 = DIRECTION( '', ( -0.000000000000000, -1.00000000000000, -0.000000000000000 ) );
#175 = DIRECTION( '', ( 0.000000000000000, 0.000000000000000, 1.00000000000000 ) );
#176 = SURFACE_STYLE_FILL_AREA( #258 );
#177 = ORIENTED_EDGE( '', *, *, #259, .T. );
#178 = ORIENTED_EDGE( '', *, *, #260, .F. );
#179 = ORIENTED_EDGE( '', *, *, #261, .F. );
#180 = ORIENTED_EDGE( '', *, *, #262, .T. );
#181 = CARTESIAN_POINT( '', ( -22.0000000000000, 4.00000000000000, 22.0000000000000 ) );
#182 = DIRECTION( '', ( 1.57702134179710E-016, 0.000000000000000, -1.00000000000000 ) );
#183 = DIRECTION( '', ( -1.00000000000000, 0.000000000000000, -1.57702134179710E-016 ) );
#184 = SURFACE_STYLE_FILL_AREA( #263 );
#185 = ORIENTED_EDGE( '', *, *, #264, .F. );
#186 = VERTEX_POINT( '', #265 );
#187 = CARTESIAN_POINT( '', ( -4.41812385287843E-015, 2.50000000000000, -4.33680868994202E-016 ) );
#188 = DIRECTION( '', ( -0.000000000000000, -1.00000000000000, 0.000000000000000 ) );
#189 = DIRECTION( '', ( 0.000000000000000, 0.000000000000000, 1.00000000000000 ) );
#190 = SURFACE_STYLE_FILL_AREA( #266 );
#191 = ORIENTED_EDGE( '', *, *, #264, .T. );
#192 = ORIENTED_EDGE( '', *, *, #267, .T. );
#193 = CARTESIAN_POINT( '', ( -4.41812385287843E-015, -9.50000000000000, -4.33680868994202E-016 ) );
#194 = DIRECTION( '', ( -0.000000000000000, -1.00000000000000, -0.000000000000000 ) );
#195 = DIRECTION( '', ( 0.000000000000000, 0.000000000000000, -1.00000000000000 ) );
#196 = SURFACE_STYLE_FILL_AREA( #268 );
#197 = ORIENTED_EDGE( '', *, *, #257, .T. );
#198 = ORIENTED_EDGE( '', *, *, #269, .F. );
#199 = ORIENTED_EDGE( '', *, *, #270, .F. );
#200 = ORIENTED_EDGE( '', *, *, #271, .F. );
#201 = ORIENTED_EDGE( '', *, *, #259, .F. );
#202 = CARTESIAN_POINT( '', ( -22.0000000000000, 0.000000000000000, 22.0000000000000 ) );
#203 = DIRECTION( '', ( 0.000000000000000, 1.00000000000000, 0.000000000000000 ) );
#204 = DIRECTION( '', ( 0.000000000000000, 0.000000000000000, 1.00000000000000 ) );
#205 = SURFACE_STYLE_FILL_AREA( #272 );
#206 = ORIENTED_EDGE( '', *, *, #270, .T. );
#207 = ORIENTED_EDGE( '', *, *, #273, .F. );
#208 = ORIENTED_EDGE( '', *, *, #274, .F. );
#209 = ORIENTED_EDGE( '', *, *, #275, .T. );
#210 = CARTESIAN_POINT( '', ( 22.0000000000000, 4.00000000000000, -22.0000000000000 ) );
#211 = DIRECTION( '', ( -1.57702134179710E-016, 0.000000000000000, 1.00000000000000 ) );
#212 = DIRECTION( '', ( 1.00000000000000, 0.000000000000000, 1.57702134179710E-016 ) );
#213 = SURFACE_STYLE_FILL_AREA( #276 );
#214 = ORIENTED_EDGE( '', *, *, #271, .T. );
#215 = ORIENTED_EDGE( '', *, *, #275, .F. );
#216 = ORIENTED_EDGE( '', *, *, #277, .F. );
#217 = ORIENTED_EDGE( '', *, *, #260, .T. );
#218 = CARTESIAN_POINT( '', ( 22.0000000000000, 4.00000000000000, 22.0000000000000 ) );
#219 = DIRECTION( '', ( -1.00000000000000, 0.000000000000000, -1.57702134179710E-016 ) );
#220 = DIRECTION( '', ( -1.57702134179709E-016, 0.000000000000000, 1.00000000000000 ) );
#221 = SURFACE_STYLE_FILL_AREA( #278 );
#222 = ORIENTED_EDGE( '', *, *, #269, .T. );
#223 = ORIENTED_EDGE( '', *, *, #262, .F. );
#224 = ORIENTED_EDGE( '', *, *, #279, .F. );
#225 = ORIENTED_EDGE( '', *, *, #273, .T. );
#226 = CARTESIAN_POINT( '', ( -22.0000000000000, 4.00000000000000, -22.0000000000000 ) );
#227 = DIRECTION( '', ( 1.00000000000000, 0.000000000000000, 1.57702134179710E-016 ) );
#228 = DIRECTION( '', ( 1.57702134179709E-016, 0.000000000000000, -1.00000000000000 ) );
#229 = SURFACE_STYLE_FILL_AREA( #280 );
#230 = ORIENTED_EDGE( '', *, *, #267, .F. );
#231 = ORIENTED_EDGE( '', *, *, #281, .F. );
#232 = CARTESIAN_POINT( '', ( -4.41812385287843E-015, -9.50000000000000, -4.33680868994202E-016 ) );
#233 = DIRECTION( '', ( -0.000000000000000, -1.00000000000000, -0.000000000000000 ) );
#234 = DIRECTION( '', ( 0.000000000000000, 0.000000000000000, -1.00000000000000 ) );
#235 = SURFACE_STYLE_FILL_AREA( #282 );
#236 = ORIENTED_EDGE( '', *, *, #279, .T. );
#237 = ORIENTED_EDGE( '', *, *, #261, .T. );
#238 = ORIENTED_EDGE( '', *, *, #277, .T. );
#239 = ORIENTED_EDGE( '', *, *, #274, .T. );
#240 = CARTESIAN_POINT( '', ( -22.0000000000000, 4.00000000000000, 22.0000000000000 ) );
#241 = DIRECTION( '', ( 0.000000000000000, 1.00000000000000, 0.000000000000000 ) );
#242 = DIRECTION( '', ( 0.000000000000000, 0.000000000000000, 1.00000000000000 ) );
#243 = SURFACE_STYLE_FILL_AREA( #283 );
#244 = ORIENTED_EDGE( '', *, *, #281, .T. );
#245 = ORIENTED_EDGE( '', *, *, #284, .T. );
#246 = CARTESIAN_POINT( '', ( -4.42342456391589E-015, -9.50000000000000, -4.33680868994202E-016 ) );
#247 = DIRECTION( '', ( 0.000000000000000, 1.00000000000000, 0.000000000000000 ) );
#248 = DIRECTION( '', ( 0.000000000000000, 0.000000000000000, 1.00000000000000 ) );
#249 = SURFACE_STYLE_FILL_AREA( #285 );
#250 = ORIENTED_EDGE( '', *, *, #284, .F. );
#251 = ORIENTED_EDGE( '', *, *, #256, .F. );
#252 = CARTESIAN_POINT( '', ( -4.42342456391589E-015, -9.00000000000000, -4.33680868994202E-016 ) );
#253 = DIRECTION( '', ( -0.000000000000000, 1.00000000000000, -0.000000000000000 ) );
#254 = DIRECTION( '', ( 0.000000000000000, 0.000000000000000, 1.00000000000000 ) );
#255 = FILL_AREA_STYLE( '', ( #286 ) );
#256 = EDGE_CURVE( '', #287, #287, #288, .T. );
#257 = EDGE_CURVE( '', #289, #289, #290, .T. );
#258 = FILL_AREA_STYLE( '', ( #291 ) );
#259 = EDGE_CURVE( '', #292, #293, #294, .T. );
#260 = EDGE_CURVE( '', #295, #293, #296, .T. );
#261 = EDGE_CURVE( '', #297, #295, #298, .T. );
#262 = EDGE_CURVE( '', #297, #292, #299, .T. );
#263 = FILL_AREA_STYLE( '', ( #300 ) );
#264 = EDGE_CURVE( '', #301, #301, #302, .T. );
#265 = CARTESIAN_POINT( '', ( -4.41812385287843E-015, 3.97721583187926, -4.33680868994202E-016 ) );
#266 = FILL_AREA_STYLE( '', ( #303 ) );
#267 = EDGE_CURVE( '', #304, #304, #305, .T. );
#268 = FILL_AREA_STYLE( '', ( #306 ) );
#269 = EDGE_CURVE( '', #307, #292, #308, .T. );
#270 = EDGE_CURVE( '', #309, #307, #310, .T. );
#271 = EDGE_CURVE( '', #293, #309, #311, .T. );
#272 = FILL_AREA_STYLE( '', ( #312 ) );
#273 = EDGE_CURVE( '', #313, #307, #314, .T. );
#274 = EDGE_CURVE( '', #315, #313, #316, .T. );
#275 = EDGE_CURVE( '', #315, #309, #317, .T. );
#276 = FILL_AREA_STYLE( '', ( #318 ) );
#277 = EDGE_CURVE( '', #295, #315, #319, .T. );
#278 = FILL_AREA_STYLE( '', ( #320 ) );
#279 = EDGE_CURVE( '', #313, #297, #321, .T. );
#280 = FILL_AREA_STYLE( '', ( #322 ) );
#281 = EDGE_CURVE( '', #323, #323, #324, .T. );
#282 = FILL_AREA_STYLE( '', ( #325 ) );
#283 = FILL_AREA_STYLE( '', ( #326 ) );
#284 = EDGE_CURVE( '', #327, #327, #328, .F. );
#285 = FILL_AREA_STYLE( '', ( #329 ) );
#286 = FILL_AREA_STYLE_COLOUR( '', #330 );
#287 = VERTEX_POINT( '', #331 );
#288 = CIRCLE( '', #332, 5.00000000000000 );
#289 = VERTEX_POINT( '', #333 );
#290 = CIRCLE( '', #334, 5.00000000000000 );
#291 = FILL_AREA_STYLE_COLOUR( '', #335 );
#292 = VERTEX_POINT( '', #336 );
#293 = VERTEX_POINT( '', #337 );
#294 = LINE( '', #338, #339 );
#295 = VERTEX_POINT( '', #340 );
#296 = LINE( '', #341, #342 );
#297 = VERTEX_POINT( '', #343 );
#298 = LINE( '', #344, #345 );
#299 = LINE( '', #346, #347 );
#300 = FILL_AREA_STYLE_COLOUR( '', #348 );
#301 = VERTEX_POINT( '', #349 );
#302 = CIRCLE( '', #350, 2.45850000000000 );
#303 = FILL_AREA_STYLE_COLOUR( '', #351 );
#304 = VERTEX_POINT( '', #352 );
#305 = CIRCLE( '', #353, 2.45850000000000 );
#306 = FILL_AREA_STYLE_COLOUR( '', #354 );
#307 = VERTEX_POINT( '', #355 );
#308 = LINE( '', #356, #357 );
#309 = VERTEX_POINT( '', #358 );
#310 = LINE( '', #359, #360 );
#311 = LINE( '', #361, #362 );
#312 = FILL_AREA_STYLE_COLOUR( '', #363 );
#313 = VERTEX_POINT( '', #364 );
#314 = LINE( '', #365, #366 );
#315 = VERTEX_POINT( '', #367 );
#316 = LINE( '', #368, #369 );
#317 = LINE( '', #370, #371 );
#318 = FILL_AREA_STYLE_COLOUR( '', #372 );
#319 = LINE( '', #373, #374 );
#320 = FILL_AREA_STYLE_COLOUR( '', #375 );
#321 = LINE( '', #376, #377 );
#322 = FILL_AREA_STYLE_COLOUR( '', #378 );
#323 = VERTEX_POINT( '', #379 );
#324 = CIRCLE( '', #380, 2.45850000000000 );
#325 = FILL_AREA_STYLE_COLOUR( '', #381 );
#326 = FILL_AREA_STYLE_COLOUR( '', #382 );
#327 = VERTEX_POINT( '', #383 );
#328 = CIRCLE( '', #384, 4.50000000000000 );
#329 = FILL_AREA_STYLE_COLOUR( '', #385 );
#330 = COLOUR_RGB( '', 0.686274528503418, 0.768627464771271, 0.866666674613953 );
#331 = CARTESIAN_POINT( '', ( -4.42342456391589E-015, -9.00000000000000, 5.00000000000000 ) );
#332 = AXIS2_PLACEMENT_3D( '', #386, #387, #388 );
#333 = CARTESIAN_POINT( '', ( 5.00000000000000, 0.000000000000000, -4.33680868994202E-016 ) );
#334 = AXIS2_PLACEMENT_3D( '', #389, #390, #391 );
#335 = COLOUR_RGB( '', 0.686274528503418, 0.768627464771271, 0.866666674613953 );
#336 = CARTESIAN_POINT( '', ( -22.0000000000000, 0.000000000000000, 22.0000000000000 ) );
#337 = CARTESIAN_POINT( '', ( 22.0000000000000, 0.000000000000000, 22.0000000000000 ) );
#338 = CARTESIAN_POINT( '', ( -22.0000000000000, 0.000000000000000, 22.0000000000000 ) );
#339 = VECTOR( '', #392, 1000.00000000000 );
#340 = CARTESIAN_POINT( '', ( 22.0000000000000, 4.00000000000000, 22.0000000000000 ) );
#341 = CARTESIAN_POINT( '', ( 22.0000000000000, 4.00000000000000, 22.0000000000000 ) );
#342 = VECTOR( '', #393, 1000.00000000000 );
#343 = CARTESIAN_POINT( '', ( -22.0000000000000, 4.00000000000000, 22.0000000000000 ) );
#344 = CARTESIAN_POINT( '', ( -22.0000000000000, 4.00000000000000, 22.0000000000000 ) );
#345 = VECTOR( '', #394, 1000.00000000000 );
#346 = CARTESIAN_POINT( '', ( -22.0000000000000, 4.00000000000000, 22.0000000000000 ) );
#347 = VECTOR( '', #395, 1000.00000000000 );
#348 = COLOUR_RGB( '', 0.686274528503418, 0.768627464771271, 0.866666674613953 );
#349 = CARTESIAN_POINT( '', ( -4.41812385287843E-015, 2.50000000000000, 2.45850000000000 ) );
#350 = AXIS2_PLACEMENT_3D( '', #396, #397, #398 );
#351 = COLOUR_RGB( '', 0.686274528503418, 0.768627464771271, 0.866666674613953 );
#352 = CARTESIAN_POINT( '', ( -4.41812385287843E-015, 0.500000000000000, -2.45850000000000 ) );
#353 = AXIS2_PLACEMENT_3D( '', #399, #400, #401 );
#354 = COLOUR_RGB( '', 0.686274528503418, 0.768627464771271, 0.866666674613953 );
#355 = CARTESIAN_POINT( '', ( -22.0000000000000, 0.000000000000000, -22.0000000000000 ) );
#356 = CARTESIAN_POINT( '', ( -22.0000000000000, 0.000000000000000, -22.0000000000000 ) );
#357 = VECTOR( '', #402, 1000.00000000000 );
#358 = CARTESIAN_POINT( '', ( 22.0000000000000, 0.000000000000000, -22.0000000000000 ) );
#359 = CARTESIAN_POINT( '', ( 22.0000000000000, 0.000000000000000, -22.0000000000000 ) );
#360 = VECTOR( '', #403, 1000.00000000000 );
#361 = CARTESIAN_POINT( '', ( 22.0000000000000, 0.000000000000000, 22.0000000000000 ) );
#362 = VECTOR( '', #404, 1000.00000000000 );
#363 = COLOUR_RGB( '', 0.686274528503418, 0.768627464771271, 0.866666674613953 );
#364 = CARTESIAN_POINT( '', ( -22.0000000000000, 4.00000000000000, -22.0000000000000 ) );
#365 = CARTESIAN_POINT( '', ( -22.0000000000000, 4.00000000000000, -22.0000000000000 ) );
#366 = VECTOR( '', #405, 1000.00000000000 );
#367 = CARTESIAN_POINT( '', ( 22.0000000000000, 4.00000000000000, -22.0000000000000 ) );
#368 = CARTESIAN_POINT( '', ( 22.0000000000000, 4.00000000000000, -22.0000000000000 ) );
#369 = VECTOR( '', #406, 1000.00000000000 );
#370 = CARTESIAN_POINT( '', ( 22.0000000000000, 4.00000000000000, -22.0000000000000 ) );
#371 = VECTOR( '', #407, 1000.00000000000 );
#372 = COLOUR_RGB( '', 0.686274528503418, 0.768627464771271, 0.866666674613953 );
#373 = CARTESIAN_POINT( '', ( 22.0000000000000, 4.00000000000000, 22.0000000000000 ) );
#374 = VECTOR( '', #408, 1000.00000000000 );
#375 = COLOUR_RGB( '', 0.686274528503418, 0.768627464771271, 0.866666674613953 );
#376 = CARTESIAN_POINT( '', ( -22.0000000000000, 4.00000000000000, -22.0000000000000 ) );
#377 = VECTOR( '', #409, 1000.00000000000 );
#378 = COLOUR_RGB( '', 0.396078437566757, 0.941176474094391, 0.450980395078659 );
#379 = CARTESIAN_POINT( '', ( -4.41812385287843E-015, -9.50000000000000, -2.45850000000000 ) );
#380 = AXIS2_PLACEMENT_3D( '', #410, #411, #412 );
#381 = COLOUR_RGB( '', 0.686274528503418, 0.768627464771271, 0.866666674613953 );
#382 = COLOUR_RGB( '', 0.686274528503418, 0.768627464771271, 0.866666674613953 );
#383 = CARTESIAN_POINT( '', ( -4.42342456391589E-015, -9.50000000000000, 4.50000000000000 ) );
#384 = AXIS2_PLACEMENT_3D( '', #413, #414, #415 );
#385 = COLOUR_RGB( '', 0.686274528503418, 0.768627464771271, 0.866666674613953 );
#386 = CARTESIAN_POINT( '', ( -4.42342456391589E-015, -9.00000000000000, -4.33680868994202E-016 ) );
#387 = DIRECTION( '', ( 0.000000000000000, 1.00000000000000, 0.000000000000000 ) );
#388 = DIRECTION( '', ( 0.000000000000000, 0.000000000000000, 1.00000000000000 ) );
#389 = CARTESIAN_POINT( '', ( -4.42342456391589E-015, 0.000000000000000, -4.33680868994202E-016 ) );
#390 = DIRECTION( '', ( -0.000000000000000, 1.00000000000000, 0.000000000000000 ) );
#391 = DIRECTION( '', ( 1.00000000000000, 0.000000000000000, 0.000000000000000 ) );
#392 = DIRECTION( '', ( 1.00000000000000, 0.000000000000000, 1.57702134179710E-016 ) );
#393 = DIRECTION( '', ( 0.000000000000000, -1.00000000000000, 0.000000000000000 ) );
#394 = DIRECTION( '', ( 1.00000000000000, 0.000000000000000, 1.57702134179710E-016 ) );
#395 = DIRECTION( '', ( 0.000000000000000, -1.00000000000000, 0.000000000000000 ) );
#396 = CARTESIAN_POINT( '', ( -4.41812385287843E-015, 2.50000000000000, -4.33680868994202E-016 ) );
#397 = DIRECTION( '', ( 0.000000000000000, 1.00000000000000, 0.000000000000000 ) );
#398 = DIRECTION( '', ( 0.000000000000000, 0.000000000000000, 1.00000000000000 ) );
#399 = CARTESIAN_POINT( '', ( -4.41812385287843E-015, 0.500000000000000, -4.33680868994202E-016 ) );
#400 = DIRECTION( '', ( 0.000000000000000, -1.00000000000000, 0.000000000000000 ) );
#401 = DIRECTION( '', ( 0.000000000000000, 0.000000000000000, -1.00000000000000 ) );
#402 = DIRECTION( '', ( -1.57702134179709E-016, 0.000000000000000, 1.00000000000000 ) );
#403 = DIRECTION( '', ( -1.00000000000000, 0.000000000000000, -1.57702134179710E-016 ) );
#404 = DIRECTION( '', ( 1.57702134179709E-016, 0.000000000000000, -1.00000000000000 ) );
#405 = DIRECTION( '', ( 0.000000000000000, -1.00000000000000, 0.000000000000000 ) );
#406 = DIRECTION( '', ( -1.00000000000000, 0.000000000000000, -1.57702134179710E-016 ) );
#407 = DIRECTION( '', ( 0.000000000000000, -1.00000000000000, 0.000000000000000 ) );
#408 = DIRECTION( '', ( 1.57702134179709E-016, 0.000000000000000, -1.00000000000000 ) );
#409 = DIRECTION( '', ( -1.57702134179709E-016, 0.000000000000000, 1.00000000000000 ) );
#410 = CARTESIAN_POINT( '', ( -4.41812385287843E-015, -9.50000000000000, -4.33680868994202E-016 ) );
#411 = DIRECTION( '', ( 0.000000000000000, 1.00000000000000, 0.000000000000000 ) );
#412 = DIRECTION( '', ( 0.000000000000000, 0.000000000000000, -1.00000000000000 ) );
#413 = CARTESIAN_POINT( '', ( -4.42342456391589E-015, -9.50000000000000, -4.33680868994202E-016 ) );
#414 = DIRECTION( '', ( 0.000000000000000, 1.00000000000000, 0.000000000000000 ) );
#415 = DIRECTION( '', ( 0.000000000000000, 0.000000000000000, 1.00000000000000 ) );
ENDSEC;
END-ISO-10303-21;
