ISO-10303-21;
HEADER;
FILE_DESCRIPTION( ( 'Unknown' ), '1' );
FILE_NAME( 'P:/Solid_Edge_3/T-Stueck_Gl_Gl_Gl/Decke_44x44x4_M6l.stp', 'Unknown', ( 'Unknown' ), ( 'Unknown' ), 'PSStep 16.0.42', 'Unknown', '  ' );
FILE_SCHEMA( ( 'AUTOMOTIVE_DESIGN { 1 0 10303 214 1 1 1 1 }' ) );
ENDSEC;
DATA;
#1 = MECHANICAL_DESIGN_GEOMETRIC_PRESENTATION_REPRESENTATION( ' ', ( #10, #11, #12, #13, #14, #15, #16, #17, #18, #19, #20, #21 ), #6 );
#2 = PRODUCT_DEFINITION_CONTEXT( '', #22, 'design' );
#3 = APPLICATION_PROTOCOL_DEFINITION( 'international standard', 'automotive_design', 2001, #22 );
#4 = PRODUCT_CATEGORY_RELATIONSHIP( 'NONE', 'NONE', #23, #24 );
#5 = SHAPE_DEFINITION_REPRESENTATION( #25, #26 );
#6 =  ( GEOMETRIC_REPRESENTATION_CONTEXT( 3 )GLOBAL_UNCERTAINTY_ASSIGNED_CONTEXT( ( #29 ) )GLOBAL_UNIT_ASSIGNED_CONTEXT( ( #31, #32, #33 ) )REPRESENTATION_CONTEXT( 'NONE', 'WORKSPACE' ) );
#10 = STYLED_ITEM( '', ( #35 ), #36 );
#11 = STYLED_ITEM( '', ( #37 ), #38 );
#12 = STYLED_ITEM( '', ( #39 ), #40 );
#13 = STYLED_ITEM( '', ( #41 ), #42 );
#14 = STYLED_ITEM( '', ( #43 ), #44 );
#15 = STYLED_ITEM( '', ( #45 ), #46 );
#16 = STYLED_ITEM( '', ( #47 ), #48 );
#17 = STYLED_ITEM( '', ( #49 ), #50 );
#18 = STYLED_ITEM( '', ( #51 ), #52 );
#19 = STYLED_ITEM( '', ( #53 ), #54 );
#20 = STYLED_ITEM( '', ( #55 ), #56 );
#21 = STYLED_ITEM( '', ( #57 ), #58 );
#22 = APPLICATION_CONTEXT( 'core data for automotive mechanical design processes' );
#23 = PRODUCT_CATEGORY( 'part', 'NONE' );
#24 = PRODUCT_RELATED_PRODUCT_CATEGORY( 'detail', ' ', ( #59 ) );
#25 = PRODUCT_DEFINITION_SHAPE( 'NONE', 'NONE', #60 );
#26 = ADVANCED_BREP_SHAPE_REPRESENTATION( '1', ( #61, #62 ), #6 );
#29 = UNCERTAINTY_MEASURE_WITH_UNIT( LENGTH_MEASURE( 0.00100000000000000 ), #31, '', '' );
#31 =  ( CONVERSION_BASED_UNIT( 'MILLIMETRE', #65 )LENGTH_UNIT(  )NAMED_UNIT( #68 ) );
#32 =  ( NAMED_UNIT( #70 )PLANE_ANGLE_UNIT(  )SI_UNIT( $, .RADIAN. ) );
#33 =  ( NAMED_UNIT( #70 )SI_UNIT( $, .STERADIAN. )SOLID_ANGLE_UNIT(  ) );
#35 = PRESENTATION_STYLE_ASSIGNMENT( ( #76 ) );
#36 = ADVANCED_FACE( '', ( #77 ), #78, .F. );
#37 = PRESENTATION_STYLE_ASSIGNMENT( ( #79 ) );
#38 = ADVANCED_FACE( '', ( #80 ), #81, .F. );
#39 = PRESENTATION_STYLE_ASSIGNMENT( ( #82 ) );
#40 = ADVANCED_FACE( '', ( #83, #84 ), #85, .F. );
#41 = PRESENTATION_STYLE_ASSIGNMENT( ( #86 ) );
#42 = ADVANCED_FACE( '', ( #87, #88 ), #89, .F. );
#43 = PRESENTATION_STYLE_ASSIGNMENT( ( #90 ) );
#44 = ADVANCED_FACE( '', ( #91, #92 ), #93, .F. );
#45 = PRESENTATION_STYLE_ASSIGNMENT( ( #94 ) );
#46 = ADVANCED_FACE( '', ( #95 ), #96, .F. );
#47 = PRESENTATION_STYLE_ASSIGNMENT( ( #97 ) );
#48 = ADVANCED_FACE( '', ( #98 ), #99, .T. );
#49 = PRESENTATION_STYLE_ASSIGNMENT( ( #100 ) );
#50 = ADVANCED_FACE( '', ( #101, #102 ), #103, .T. );
#51 = PRESENTATION_STYLE_ASSIGNMENT( ( #104 ) );
#52 = ADVANCED_FACE( '', ( #105, #106 ), #107, .T. );
#53 = PRESENTATION_STYLE_ASSIGNMENT( ( #108 ) );
#54 = ADVANCED_FACE( '', ( #109 ), #110, .F. );
#55 = PRESENTATION_STYLE_ASSIGNMENT( ( #111 ) );
#56 = ADVANCED_FACE( '', ( #112, #113 ), #114, .F. );
#57 = PRESENTATION_STYLE_ASSIGNMENT( ( #115 ) );
#58 = ADVANCED_FACE( '', ( #116, #117 ), #118, .F. );
#59 = PRODUCT( '1', '1', 'PART-1-DESC', ( #119 ) );
#60 = PRODUCT_DEFINITION( 'NONE', 'NONE', #120, #2 );
#61 = MANIFOLD_SOLID_BREP( '1', #121 );
#62 = AXIS2_PLACEMENT_3D( '', #122, #123, #124 );
#65 = LENGTH_MEASURE_WITH_UNIT( LENGTH_MEASURE( 1.00000000000000 ), #125 );
#68 = DIMENSIONAL_EXPONENTS( 1.00000000000000, 0.000000000000000, 0.000000000000000, 0.000000000000000, 0.000000000000000, 0.000000000000000, 0.000000000000000 );
#70 = DIMENSIONAL_EXPONENTS( 0.000000000000000, 0.000000000000000, 0.000000000000000, 0.000000000000000, 0.000000000000000, 0.000000000000000, 0.000000000000000 );
#76 = SURFACE_STYLE_USAGE( .BOTH., #126 );
#77 = FACE_OUTER_BOUND( '', #127, .T. );
#78 = PLANE( '', #128 );
#79 = SURFACE_STYLE_USAGE( .BOTH., #129 );
#80 = FACE_OUTER_BOUND( '', #130, .T. );
#81 = PLANE( '', #131 );
#82 = SURFACE_STYLE_USAGE( .BOTH., #132 );
#83 = FACE_OUTER_BOUND( '', #133, .T. );
#84 = FACE_BOUND( '', #134, .T. );
#85 = CONICAL_SURFACE( '', #135, 2.45850000000000, 1.02974425867665 );
#86 = SURFACE_STYLE_USAGE( .BOTH., #136 );
#87 = FACE_BOUND( '', #137, .T. );
#88 = FACE_OUTER_BOUND( '', #138, .T. );
#89 = PLANE( '', #139 );
#90 = SURFACE_STYLE_USAGE( .BOTH., #140 );
#91 = FACE_OUTER_BOUND( '', #141, .T. );
#92 = FACE_OUTER_BOUND( '', #142, .T. );
#93 = CYLINDRICAL_SURFACE( '', #143, 2.45850000000000 );
#94 = SURFACE_STYLE_USAGE( .BOTH., #144 );
#95 = FACE_OUTER_BOUND( '', #145, .T. );
#96 = PLANE( '', #146 );
#97 = SURFACE_STYLE_USAGE( .BOTH., #147 );
#98 = FACE_OUTER_BOUND( '', #148, .T. );
#99 = PLANE( '', #149 );
#100 = SURFACE_STYLE_USAGE( .BOTH., #150 );
#101 = FACE_BOUND( '', #151, .T. );
#102 = FACE_OUTER_BOUND( '', #152, .T. );
#103 = CONICAL_SURFACE( '', #153, 5.00000000000000, 0.785398163397448 );
#104 = SURFACE_STYLE_USAGE( .BOTH., #154 );
#105 = FACE_OUTER_BOUND( '', #155, .T. );
#106 = FACE_OUTER_BOUND( '', #156, .T. );
#107 = CYLINDRICAL_SURFACE( '', #157, 5.00000000000000 );
#108 = SURFACE_STYLE_USAGE( .BOTH., #158 );
#109 = FACE_OUTER_BOUND( '', #159, .T. );
#110 = PLANE( '', #160 );
#111 = SURFACE_STYLE_USAGE( .BOTH., #161 );
#112 = FACE_OUTER_BOUND( '', #162, .T. );
#113 = FACE_OUTER_BOUND( '', #163, .T. );
#114 = CYLINDRICAL_SURFACE( '', #164, 2.45850000000000 );
#115 = SURFACE_STYLE_USAGE( .BOTH., #165 );
#116 = FACE_BOUND( '', #166, .T. );
#117 = FACE_OUTER_BOUND( '', #167, .T. );
#118 = PLANE( '', #168 );
#119 = PRODUCT_CONTEXT( '', #22, 'mechanical' );
#120 = PRODUCT_DEFINITION_FORMATION_WITH_SPECIFIED_SOURCE( ' ', 'NONE', #59, .NOT_KNOWN. );
#121 = CLOSED_SHELL( '', ( #40, #44, #56, #54, #42, #52, #48, #58, #46, #36, #38, #50 ) );
#122 = CARTESIAN_POINT( '', ( 0.000000000000000, 0.000000000000000, 0.000000000000000 ) );
#123 = DIRECTION( '', ( 0.000000000000000, 0.000000000000000, 1.00000000000000 ) );
#124 = DIRECTION( '', ( 1.00000000000000, 0.000000000000000, 0.000000000000000 ) );
#125 =  ( LENGTH_UNIT(  )NAMED_UNIT( #68 )SI_UNIT( .MILLI., .METRE. ) );
#126 = SURFACE_SIDE_STYLE( '', ( #170 ) );
#127 = EDGE_LOOP( '', ( #171, #172, #173, #174 ) );
#128 = AXIS2_PLACEMENT_3D( '', #175, #176, #177 );
#129 = SURFACE_SIDE_STYLE( '', ( #178 ) );
#130 = EDGE_LOOP( '', ( #179, #180, #181, #182 ) );
#131 = AXIS2_PLACEMENT_3D( '', #183, #184, #185 );
#132 = SURFACE_SIDE_STYLE( '', ( #186 ) );
#133 = EDGE_LOOP( '', ( #187 ) );
#134 = VERTEX_LOOP( '', #188 );
#135 = AXIS2_PLACEMENT_3D( '', #189, #190, #191 );
#136 = SURFACE_SIDE_STYLE( '', ( #192 ) );
#137 = EDGE_LOOP( '', ( #193 ) );
#138 = EDGE_LOOP( '', ( #194 ) );
#139 = AXIS2_PLACEMENT_3D( '', #195, #196, #197 );
#140 = SURFACE_SIDE_STYLE( '', ( #198 ) );
#141 = EDGE_LOOP( '', ( #199 ) );
#142 = EDGE_LOOP( '', ( #200 ) );
#143 = AXIS2_PLACEMENT_3D( '', #201, #202, #203 );
#144 = SURFACE_SIDE_STYLE( '', ( #204 ) );
#145 = EDGE_LOOP( '', ( #205, #206, #207, #208 ) );
#146 = AXIS2_PLACEMENT_3D( '', #209, #210, #211 );
#147 = SURFACE_SIDE_STYLE( '', ( #212 ) );
#148 = EDGE_LOOP( '', ( #213, #214, #215, #216 ) );
#149 = AXIS2_PLACEMENT_3D( '', #217, #218, #219 );
#150 = SURFACE_SIDE_STYLE( '', ( #220 ) );
#151 = EDGE_LOOP( '', ( #221 ) );
#152 = EDGE_LOOP( '', ( #222 ) );
#153 = AXIS2_PLACEMENT_3D( '', #223, #224, #225 );
#154 = SURFACE_SIDE_STYLE( '', ( #226 ) );
#155 = EDGE_LOOP( '', ( #227 ) );
#156 = EDGE_LOOP( '', ( #228 ) );
#157 = AXIS2_PLACEMENT_3D( '', #229, #230, #231 );
#158 = SURFACE_SIDE_STYLE( '', ( #232 ) );
#159 = EDGE_LOOP( '', ( #233, #234, #235, #236 ) );
#160 = AXIS2_PLACEMENT_3D( '', #237, #238, #239 );
#161 = SURFACE_SIDE_STYLE( '', ( #240 ) );
#162 = EDGE_LOOP( '', ( #241 ) );
#163 = EDGE_LOOP( '', ( #242 ) );
#164 = AXIS2_PLACEMENT_3D( '', #243, #244, #245 );
#165 = SURFACE_SIDE_STYLE( '', ( #246 ) );
#166 = EDGE_LOOP( '', ( #247 ) );
#167 = EDGE_LOOP( '', ( #248, #249, #250, #251 ) );
#168 = AXIS2_PLACEMENT_3D( '', #252, #253, #254 );
#170 = SURFACE_STYLE_FILL_AREA( #255 );
#171 = ORIENTED_EDGE( '', *, *, #256, .T. );
#172 = ORIENTED_EDGE( '', *, *, #257, .F. );
#173 = ORIENTED_EDGE( '', *, *, #258, .F. );
#174 = ORIENTED_EDGE( '', *, *, #259, .T. );
#175 = CARTESIAN_POINT( '', ( 22.0000000000000, 4.00000000000000, 22.0000000000000 ) );
#176 = DIRECTION( '', ( -1.00000000000000, 0.000000000000000, -1.57702134179710E-016 ) );
#177 = DIRECTION( '', ( -1.57702134179709E-016, 0.000000000000000, 1.00000000000000 ) );
#178 = SURFACE_STYLE_FILL_AREA( #260 );
#179 = ORIENTED_EDGE( '', *, *, #261, .T. );
#180 = ORIENTED_EDGE( '', *, *, #259, .F. );
#181 = ORIENTED_EDGE( '', *, *, #262, .F. );
#182 = ORIENTED_EDGE( '', *, *, #263, .T. );
#183 = CARTESIAN_POINT( '', ( -22.0000000000000, 4.00000000000000, 22.0000000000000 ) );
#184 = DIRECTION( '', ( 1.57702134179710E-016, 0.000000000000000, -1.00000000000000 ) );
#185 = DIRECTION( '', ( -1.00000000000000, 0.000000000000000, -1.57702134179710E-016 ) );
#186 = SURFACE_STYLE_FILL_AREA( #264 );
#187 = ORIENTED_EDGE( '', *, *, #265, .F. );
#188 = VERTEX_POINT( '', #266 );
#189 = CARTESIAN_POINT( '', ( -4.41812385287843E-015, 2.00000000000000, -4.33680868994202E-016 ) );
#190 = DIRECTION( '', ( -0.000000000000000, -1.00000000000000, 0.000000000000000 ) );
#191 = DIRECTION( '', ( 0.000000000000000, 0.000000000000000, 1.00000000000000 ) );
#192 = SURFACE_STYLE_FILL_AREA( #267 );
#193 = ORIENTED_EDGE( '', *, *, #268, .T. );
#194 = ORIENTED_EDGE( '', *, *, #269, .T. );
#195 = CARTESIAN_POINT( '', ( -4.42342456391589E-015, -10.0000000000000, -4.33680868994202E-016 ) );
#196 = DIRECTION( '', ( 0.000000000000000, 1.00000000000000, 0.000000000000000 ) );
#197 = DIRECTION( '', ( 0.000000000000000, 0.000000000000000, 1.00000000000000 ) );
#198 = SURFACE_STYLE_FILL_AREA( #270 );
#199 = ORIENTED_EDGE( '', *, *, #271, .F. );
#200 = ORIENTED_EDGE( '', *, *, #268, .F. );
#201 = CARTESIAN_POINT( '', ( -4.41812385287843E-015, -10.0000000000000, -4.33680868994202E-016 ) );
#202 = DIRECTION( '', ( -0.000000000000000, -1.00000000000000, -0.000000000000000 ) );
#203 = DIRECTION( '', ( 0.000000000000000, 0.000000000000000, -1.00000000000000 ) );
#204 = SURFACE_STYLE_FILL_AREA( #272 );
#205 = ORIENTED_EDGE( '', *, *, #273, .T. );
#206 = ORIENTED_EDGE( '', *, *, #274, .F. );
#207 = ORIENTED_EDGE( '', *, *, #275, .F. );
#208 = ORIENTED_EDGE( '', *, *, #257, .T. );
#209 = CARTESIAN_POINT( '', ( 22.0000000000000, 4.00000000000000, -22.0000000000000 ) );
#210 = DIRECTION( '', ( -1.57702134179710E-016, 0.000000000000000, 1.00000000000000 ) );
#211 = DIRECTION( '', ( 1.00000000000000, 0.000000000000000, 1.57702134179710E-016 ) );
#212 = SURFACE_STYLE_FILL_AREA( #276 );
#213 = ORIENTED_EDGE( '', *, *, #277, .T. );
#214 = ORIENTED_EDGE( '', *, *, #262, .T. );
#215 = ORIENTED_EDGE( '', *, *, #258, .T. );
#216 = ORIENTED_EDGE( '', *, *, #275, .T. );
#217 = CARTESIAN_POINT( '', ( -22.0000000000000, 4.00000000000000, 22.0000000000000 ) );
#218 = DIRECTION( '', ( 0.000000000000000, 1.00000000000000, 0.000000000000000 ) );
#219 = DIRECTION( '', ( 0.000000000000000, 0.000000000000000, 1.00000000000000 ) );
#220 = SURFACE_STYLE_FILL_AREA( #278 );
#221 = ORIENTED_EDGE( '', *, *, #269, .F. );
#222 = ORIENTED_EDGE( '', *, *, #279, .F. );
#223 = CARTESIAN_POINT( '', ( -4.42342456391589E-015, -9.50000000000000, -4.33680868994202E-016 ) );
#224 = DIRECTION( '', ( -0.000000000000000, 1.00000000000000, -0.000000000000000 ) );
#225 = DIRECTION( '', ( 0.000000000000000, 0.000000000000000, 1.00000000000000 ) );
#226 = SURFACE_STYLE_FILL_AREA( #280 );
#227 = ORIENTED_EDGE( '', *, *, #279, .T. );
#228 = ORIENTED_EDGE( '', *, *, #281, .F. );
#229 = CARTESIAN_POINT( '', ( -4.42342456391589E-015, -10.0000000000000, -4.33680868994202E-016 ) );
#230 = DIRECTION( '', ( -0.000000000000000, -1.00000000000000, -0.000000000000000 ) );
#231 = DIRECTION( '', ( 0.000000000000000, 0.000000000000000, 1.00000000000000 ) );
#232 = SURFACE_STYLE_FILL_AREA( #282 );
#233 = ORIENTED_EDGE( '', *, *, #283, .T. );
#234 = ORIENTED_EDGE( '', *, *, #263, .F. );
#235 = ORIENTED_EDGE( '', *, *, #277, .F. );
#236 = ORIENTED_EDGE( '', *, *, #274, .T. );
#237 = CARTESIAN_POINT( '', ( -22.0000000000000, 4.00000000000000, -22.0000000000000 ) );
#238 = DIRECTION( '', ( 1.00000000000000, 0.000000000000000, 1.57702134179710E-016 ) );
#239 = DIRECTION( '', ( 1.57702134179709E-016, 0.000000000000000, -1.00000000000000 ) );
#240 = SURFACE_STYLE_FILL_AREA( #284 );
#241 = ORIENTED_EDGE( '', *, *, #265, .T. );
#242 = ORIENTED_EDGE( '', *, *, #271, .T. );
#243 = CARTESIAN_POINT( '', ( -4.41812385287843E-015, -10.0000000000000, -4.33680868994202E-016 ) );
#244 = DIRECTION( '', ( -0.000000000000000, -1.00000000000000, -0.000000000000000 ) );
#245 = DIRECTION( '', ( 0.000000000000000, 0.000000000000000, -1.00000000000000 ) );
#246 = SURFACE_STYLE_FILL_AREA( #285 );
#247 = ORIENTED_EDGE( '', *, *, #281, .T. );
#248 = ORIENTED_EDGE( '', *, *, #283, .F. );
#249 = ORIENTED_EDGE( '', *, *, #273, .F. );
#250 = ORIENTED_EDGE( '', *, *, #256, .F. );
#251 = ORIENTED_EDGE( '', *, *, #261, .F. );
#252 = CARTESIAN_POINT( '', ( -22.0000000000000, 0.000000000000000, 22.0000000000000 ) );
#253 = DIRECTION( '', ( 0.000000000000000, 1.00000000000000, 0.000000000000000 ) );
#254 = DIRECTION( '', ( 0.000000000000000, 0.000000000000000, 1.00000000000000 ) );
#255 = FILL_AREA_STYLE( '', ( #286 ) );
#256 = EDGE_CURVE( '', #287, #288, #289, .T. );
#257 = EDGE_CURVE( '', #290, #288, #291, .T. );
#258 = EDGE_CURVE( '', #292, #290, #293, .T. );
#259 = EDGE_CURVE( '', #292, #287, #294, .T. );
#260 = FILL_AREA_STYLE( '', ( #295 ) );
#261 = EDGE_CURVE( '', #296, #287, #297, .T. );
#262 = EDGE_CURVE( '', #298, #292, #299, .T. );
#263 = EDGE_CURVE( '', #298, #296, #300, .T. );
#264 = FILL_AREA_STYLE( '', ( #301 ) );
#265 = EDGE_CURVE( '', #302, #302, #303, .T. );
#266 = CARTESIAN_POINT( '', ( -4.41812385287843E-015, 3.47721583187926, -4.33680868994202E-016 ) );
#267 = FILL_AREA_STYLE( '', ( #304 ) );
#268 = EDGE_CURVE( '', #305, #305, #306, .T. );
#269 = EDGE_CURVE( '', #307, #307, #308, .F. );
#270 = FILL_AREA_STYLE( '', ( #309 ) );
#271 = EDGE_CURVE( '', #310, #310, #311, .T. );
#272 = FILL_AREA_STYLE( '', ( #312 ) );
#273 = EDGE_CURVE( '', #288, #313, #314, .T. );
#274 = EDGE_CURVE( '', #315, #313, #316, .T. );
#275 = EDGE_CURVE( '', #290, #315, #317, .T. );
#276 = FILL_AREA_STYLE( '', ( #318 ) );
#277 = EDGE_CURVE( '', #315, #298, #319, .T. );
#278 = FILL_AREA_STYLE( '', ( #320 ) );
#279 = EDGE_CURVE( '', #321, #321, #322, .T. );
#280 = FILL_AREA_STYLE( '', ( #323 ) );
#281 = EDGE_CURVE( '', #324, #324, #325, .T. );
#282 = FILL_AREA_STYLE( '', ( #326 ) );
#283 = EDGE_CURVE( '', #313, #296, #327, .T. );
#284 = FILL_AREA_STYLE( '', ( #328 ) );
#285 = FILL_AREA_STYLE( '', ( #329 ) );
#286 = FILL_AREA_STYLE_COLOUR( '', #330 );
#287 = VERTEX_POINT( '', #331 );
#288 = VERTEX_POINT( '', #332 );
#289 = LINE( '', #333, #334 );
#290 = VERTEX_POINT( '', #335 );
#291 = LINE( '', #336, #337 );
#292 = VERTEX_POINT( '', #338 );
#293 = LINE( '', #339, #340 );
#294 = LINE( '', #341, #342 );
#295 = FILL_AREA_STYLE_COLOUR( '', #343 );
#296 = VERTEX_POINT( '', #344 );
#297 = LINE( '', #345, #346 );
#298 = VERTEX_POINT( '', #347 );
#299 = LINE( '', #348, #349 );
#300 = LINE( '', #350, #351 );
#301 = FILL_AREA_STYLE_COLOUR( '', #352 );
#302 = VERTEX_POINT( '', #353 );
#303 = CIRCLE( '', #354, 2.45850000000000 );
#304 = FILL_AREA_STYLE_COLOUR( '', #355 );
#305 = VERTEX_POINT( '', #356 );
#306 = CIRCLE( '', #357, 2.45850000000000 );
#307 = VERTEX_POINT( '', #358 );
#308 = CIRCLE( '', #359, 4.50000000000000 );
#309 = FILL_AREA_STYLE_COLOUR( '', #360 );
#310 = VERTEX_POINT( '', #361 );
#311 = CIRCLE( '', #362, 2.45850000000000 );
#312 = FILL_AREA_STYLE_COLOUR( '', #363 );
#313 = VERTEX_POINT( '', #364 );
#314 = LINE( '', #365, #366 );
#315 = VERTEX_POINT( '', #367 );
#316 = LINE( '', #368, #369 );
#317 = LINE( '', #370, #371 );
#318 = FILL_AREA_STYLE_COLOUR( '', #372 );
#319 = LINE( '', #373, #374 );
#320 = FILL_AREA_STYLE_COLOUR( '', #375 );
#321 = VERTEX_POINT( '', #376 );
#322 = CIRCLE( '', #377, 5.00000000000000 );
#323 = FILL_AREA_STYLE_COLOUR( '', #378 );
#324 = VERTEX_POINT( '', #379 );
#325 = CIRCLE( '', #380, 5.00000000000000 );
#326 = FILL_AREA_STYLE_COLOUR( '', #381 );
#327 = LINE( '', #382, #383 );
#328 = FILL_AREA_STYLE_COLOUR( '', #384 );
#329 = FILL_AREA_STYLE_COLOUR( '', #385 );
#330 = COLOUR_RGB( '', 0.686274528503418, 0.768627464771271, 0.866666674613953 );
#331 = CARTESIAN_POINT( '', ( 22.0000000000000, 0.000000000000000, 22.0000000000000 ) );
#332 = CARTESIAN_POINT( '', ( 22.0000000000000, 0.000000000000000, -22.0000000000000 ) );
#333 = CARTESIAN_POINT( '', ( 22.0000000000000, 0.000000000000000, 22.0000000000000 ) );
#334 = VECTOR( '', #386, 1000.00000000000 );
#335 = CARTESIAN_POINT( '', ( 22.0000000000000, 4.00000000000000, -22.0000000000000 ) );
#336 = CARTESIAN_POINT( '', ( 22.0000000000000, 4.00000000000000, -22.0000000000000 ) );
#337 = VECTOR( '', #387, 1000.00000000000 );
#338 = CARTESIAN_POINT( '', ( 22.0000000000000, 4.00000000000000, 22.0000000000000 ) );
#339 = CARTESIAN_POINT( '', ( 22.0000000000000, 4.00000000000000, 22.0000000000000 ) );
#340 = VECTOR( '', #388, 1000.00000000000 );
#341 = CARTESIAN_POINT( '', ( 22.0000000000000, 4.00000000000000, 22.0000000000000 ) );
#342 = VECTOR( '', #389, 1000.00000000000 );
#343 = COLOUR_RGB( '', 0.686274528503418, 0.768627464771271, 0.866666674613953 );
#344 = CARTESIAN_POINT( '', ( -22.0000000000000, 0.000000000000000, 22.0000000000000 ) );
#345 = CARTESIAN_POINT( '', ( -22.0000000000000, 0.000000000000000, 22.0000000000000 ) );
#346 = VECTOR( '', #390, 1000.00000000000 );
#347 = CARTESIAN_POINT( '', ( -22.0000000000000, 4.00000000000000, 22.0000000000000 ) );
#348 = CARTESIAN_POINT( '', ( -22.0000000000000, 4.00000000000000, 22.0000000000000 ) );
#349 = VECTOR( '', #391, 1000.00000000000 );
#350 = CARTESIAN_POINT( '', ( -22.0000000000000, 4.00000000000000, 22.0000000000000 ) );
#351 = VECTOR( '', #392, 1000.00000000000 );
#352 = COLOUR_RGB( '', 0.686274528503418, 0.768627464771271, 0.866666674613953 );
#353 = CARTESIAN_POINT( '', ( -4.41812385287843E-015, 2.00000000000000, 2.45850000000000 ) );
#354 = AXIS2_PLACEMENT_3D( '', #393, #394, #395 );
#355 = COLOUR_RGB( '', 0.686274528503418, 0.768627464771271, 0.866666674613953 );
#356 = CARTESIAN_POINT( '', ( -4.41812385287843E-015, -10.0000000000000, -2.45850000000000 ) );
#357 = AXIS2_PLACEMENT_3D( '', #396, #397, #398 );
#358 = CARTESIAN_POINT( '', ( -4.42342456391589E-015, -10.0000000000000, 4.50000000000000 ) );
#359 = AXIS2_PLACEMENT_3D( '', #399, #400, #401 );
#360 = COLOUR_RGB( '', 0.396078437566757, 0.941176474094391, 0.450980395078659 );
#361 = CARTESIAN_POINT( '', ( -4.41812385287843E-015, 0.000000000000000, -2.45850000000000 ) );
#362 = AXIS2_PLACEMENT_3D( '', #402, #403, #404 );
#363 = COLOUR_RGB( '', 0.686274528503418, 0.768627464771271, 0.866666674613953 );
#364 = CARTESIAN_POINT( '', ( -22.0000000000000, 0.000000000000000, -22.0000000000000 ) );
#365 = CARTESIAN_POINT( '', ( 22.0000000000000, 0.000000000000000, -22.0000000000000 ) );
#366 = VECTOR( '', #405, 1000.00000000000 );
#367 = CARTESIAN_POINT( '', ( -22.0000000000000, 4.00000000000000, -22.0000000000000 ) );
#368 = CARTESIAN_POINT( '', ( -22.0000000000000, 4.00000000000000, -22.0000000000000 ) );
#369 = VECTOR( '', #406, 1000.00000000000 );
#370 = CARTESIAN_POINT( '', ( 22.0000000000000, 4.00000000000000, -22.0000000000000 ) );
#371 = VECTOR( '', #407, 1000.00000000000 );
#372 = COLOUR_RGB( '', 0.686274528503418, 0.768627464771271, 0.866666674613953 );
#373 = CARTESIAN_POINT( '', ( -22.0000000000000, 4.00000000000000, -22.0000000000000 ) );
#374 = VECTOR( '', #408, 1000.00000000000 );
#375 = COLOUR_RGB( '', 0.686274528503418, 0.768627464771271, 0.866666674613953 );
#376 = CARTESIAN_POINT( '', ( -4.42342456391589E-015, -9.50000000000000, 5.00000000000000 ) );
#377 = AXIS2_PLACEMENT_3D( '', #409, #410, #411 );
#378 = COLOUR_RGB( '', 0.686274528503418, 0.768627464771271, 0.866666674613953 );
#379 = CARTESIAN_POINT( '', ( 5.00000000000000, 0.000000000000000, -4.33680868994202E-016 ) );
#380 = AXIS2_PLACEMENT_3D( '', #412, #413, #414 );
#381 = COLOUR_RGB( '', 0.686274528503418, 0.768627464771271, 0.866666674613953 );
#382 = CARTESIAN_POINT( '', ( -22.0000000000000, 0.000000000000000, -22.0000000000000 ) );
#383 = VECTOR( '', #415, 1000.00000000000 );
#384 = COLOUR_RGB( '', 0.686274528503418, 0.768627464771271, 0.866666674613953 );
#385 = COLOUR_RGB( '', 0.686274528503418, 0.768627464771271, 0.866666674613953 );
#386 = DIRECTION( '', ( 1.57702134179709E-016, 0.000000000000000, -1.00000000000000 ) );
#387 = DIRECTION( '', ( 0.000000000000000, -1.00000000000000, 0.000000000000000 ) );
#388 = DIRECTION( '', ( 1.57702134179709E-016, 0.000000000000000, -1.00000000000000 ) );
#389 = DIRECTION( '', ( 0.000000000000000, -1.00000000000000, 0.000000000000000 ) );
#390 = DIRECTION( '', ( 1.00000000000000, 0.000000000000000, 1.57702134179710E-016 ) );
#391 = DIRECTION( '', ( 1.00000000000000, 0.000000000000000, 1.57702134179710E-016 ) );
#392 = DIRECTION( '', ( 0.000000000000000, -1.00000000000000, 0.000000000000000 ) );
#393 = CARTESIAN_POINT( '', ( -4.41812385287843E-015, 2.00000000000000, -4.33680868994202E-016 ) );
#394 = DIRECTION( '', ( 0.000000000000000, 1.00000000000000, 0.000000000000000 ) );
#395 = DIRECTION( '', ( 0.000000000000000, 0.000000000000000, 1.00000000000000 ) );
#396 = CARTESIAN_POINT( '', ( -4.41812385287843E-015, -10.0000000000000, -4.33680868994202E-016 ) );
#397 = DIRECTION( '', ( 0.000000000000000, 1.00000000000000, 0.000000000000000 ) );
#398 = DIRECTION( '', ( 0.000000000000000, 0.000000000000000, -1.00000000000000 ) );
#399 = CARTESIAN_POINT( '', ( -4.42342456391589E-015, -10.0000000000000, -4.33680868994202E-016 ) );
#400 = DIRECTION( '', ( 0.000000000000000, 1.00000000000000, 0.000000000000000 ) );
#401 = DIRECTION( '', ( 0.000000000000000, 0.000000000000000, 1.00000000000000 ) );
#402 = CARTESIAN_POINT( '', ( -4.41812385287843E-015, 0.000000000000000, -4.33680868994202E-016 ) );
#403 = DIRECTION( '', ( 0.000000000000000, -1.00000000000000, 0.000000000000000 ) );
#404 = DIRECTION( '', ( 0.000000000000000, 0.000000000000000, -1.00000000000000 ) );
#405 = DIRECTION( '', ( -1.00000000000000, 0.000000000000000, -1.57702134179710E-016 ) );
#406 = DIRECTION( '', ( 0.000000000000000, -1.00000000000000, 0.000000000000000 ) );
#407 = DIRECTION( '', ( -1.00000000000000, 0.000000000000000, -1.57702134179710E-016 ) );
#408 = DIRECTION( '', ( -1.57702134179709E-016, 0.000000000000000, 1.00000000000000 ) );
#409 = CARTESIAN_POINT( '', ( -4.42342456391589E-015, -9.50000000000000, -4.33680868994202E-016 ) );
#410 = DIRECTION( '', ( 0.000000000000000, 1.00000000000000, 0.000000000000000 ) );
#411 = DIRECTION( '', ( 0.000000000000000, 0.000000000000000, 1.00000000000000 ) );
#412 = CARTESIAN_POINT( '', ( -4.42342456391589E-015, 0.000000000000000, -4.33680868994202E-016 ) );
#413 = DIRECTION( '', ( -0.000000000000000, 1.00000000000000, 0.000000000000000 ) );
#414 = DIRECTION( '', ( 1.00000000000000, 0.000000000000000, 0.000000000000000 ) );
#415 = DIRECTION( '', ( -1.57702134179709E-016, 0.000000000000000, 1.00000000000000 ) );
ENDSEC;
END-ISO-10303-21;
