ISO-10303-21;
HEADER;
/* Generated by software containing ST-Developer
 * from STEP Tools, Inc. (www.steptools.com) 
 */
/* OPTION: strings as raw bytes, not using required /X/ escapes */

FILE_DESCRIPTION(
/* description */ ('Unknown'),
/* implementation_level */ '2;1');

FILE_NAME(
/* name */ '3842-PROF-B10M cover',
/* time_stamp */ '2019-11-11T10:40:35+01:00',
/* author */ ('Unknown'),
/* organization */ ('Unknown'),
/* preprocessor_version */ 'ST-DEVELOPER v16.7',
/* originating_system */ 'Solid Edge',
/* authorisation */ 'Unknown');

FILE_SCHEMA (('AUTOMOTIVE_DESIGN {1 0 10303 214 3 1 1}'));
ENDSEC;

DATA;
#10=PROPERTY_DEFINITION_REPRESENTATION(#14,#12);
#11=PROPERTY_DEFINITION_REPRESENTATION(#15,#13);
#12=REPRESENTATION('',(#16),#593);
#13=REPRESENTATION('',(#17),#593);
#14=PROPERTY_DEFINITION('pmi validation property','',#598);
#15=PROPERTY_DEFINITION('pmi validation property','',#598);
#16=VALUE_REPRESENTATION_ITEM('number of annotations',COUNT_MEASURE(0.));
#17=VALUE_REPRESENTATION_ITEM('number of views',COUNT_MEASURE(0.));
#18=SHAPE_REPRESENTATION_RELATIONSHIP('','',#398,#19);
#19=ADVANCED_BREP_SHAPE_REPRESENTATION('',(#396),#593);
#20=CYLINDRICAL_SURFACE('',#406,0.3);
#21=CYLINDRICAL_SURFACE('',#410,0.3);
#22=CYLINDRICAL_SURFACE('',#414,0.3);
#23=CYLINDRICAL_SURFACE('',#418,0.3);
#24=LINE('',#527,#40);
#25=LINE('',#530,#41);
#26=LINE('',#532,#42);
#27=LINE('',#534,#43);
#28=LINE('',#538,#44);
#29=LINE('',#542,#45);
#30=LINE('',#544,#46);
#31=LINE('',#546,#47);
#32=LINE('',#550,#48);
#33=LINE('',#554,#49);
#34=LINE('',#556,#50);
#35=LINE('',#558,#51);
#36=LINE('',#562,#52);
#37=LINE('',#566,#53);
#38=LINE('',#568,#54);
#39=LINE('',#570,#55);
#40=VECTOR('',#447,1000.);
#41=VECTOR('',#448,1000.);
#42=VECTOR('',#449,1000.);
#43=VECTOR('',#450,1000.);
#44=VECTOR('',#455,1000.);
#45=VECTOR('',#460,1000.);
#46=VECTOR('',#461,1000.);
#47=VECTOR('',#462,1000.);
#48=VECTOR('',#467,1000.);
#49=VECTOR('',#472,1000.);
#50=VECTOR('',#473,1000.);
#51=VECTOR('',#474,1000.);
#52=VECTOR('',#479,1000.);
#53=VECTOR('',#484,1000.);
#54=VECTOR('',#485,1000.);
#55=VECTOR('',#486,1000.);
#56=PLANE('',#405);
#57=PLANE('',#409);
#58=PLANE('',#413);
#59=PLANE('',#417);
#60=PLANE('',#427);
#61=PLANE('',#432);
#62=ORIENTED_EDGE('',*,*,#128,.T.);
#63=ORIENTED_EDGE('',*,*,#129,.F.);
#64=ORIENTED_EDGE('',*,*,#130,.F.);
#65=ORIENTED_EDGE('',*,*,#129,.T.);
#66=ORIENTED_EDGE('',*,*,#131,.F.);
#67=ORIENTED_EDGE('',*,*,#132,.F.);
#68=ORIENTED_EDGE('',*,*,#133,.T.);
#69=ORIENTED_EDGE('',*,*,#134,.T.);
#70=ORIENTED_EDGE('',*,*,#135,.F.);
#71=ORIENTED_EDGE('',*,*,#136,.F.);
#72=ORIENTED_EDGE('',*,*,#137,.T.);
#73=ORIENTED_EDGE('',*,*,#132,.T.);
#74=ORIENTED_EDGE('',*,*,#138,.F.);
#75=ORIENTED_EDGE('',*,*,#139,.F.);
#76=ORIENTED_EDGE('',*,*,#140,.T.);
#77=ORIENTED_EDGE('',*,*,#136,.T.);
#78=ORIENTED_EDGE('',*,*,#141,.F.);
#79=ORIENTED_EDGE('',*,*,#142,.F.);
#80=ORIENTED_EDGE('',*,*,#143,.T.);
#81=ORIENTED_EDGE('',*,*,#139,.T.);
#82=ORIENTED_EDGE('',*,*,#144,.F.);
#83=ORIENTED_EDGE('',*,*,#145,.F.);
#84=ORIENTED_EDGE('',*,*,#146,.T.);
#85=ORIENTED_EDGE('',*,*,#142,.T.);
#86=ORIENTED_EDGE('',*,*,#147,.F.);
#87=ORIENTED_EDGE('',*,*,#148,.F.);
#88=ORIENTED_EDGE('',*,*,#149,.T.);
#89=ORIENTED_EDGE('',*,*,#145,.T.);
#90=ORIENTED_EDGE('',*,*,#150,.F.);
#91=ORIENTED_EDGE('',*,*,#151,.F.);
#92=ORIENTED_EDGE('',*,*,#152,.T.);
#93=ORIENTED_EDGE('',*,*,#148,.T.);
#94=ORIENTED_EDGE('',*,*,#153,.F.);
#95=ORIENTED_EDGE('',*,*,#134,.F.);
#96=ORIENTED_EDGE('',*,*,#154,.T.);
#97=ORIENTED_EDGE('',*,*,#151,.T.);
#98=ORIENTED_EDGE('',*,*,#155,.F.);
#99=ORIENTED_EDGE('',*,*,#156,.T.);
#100=ORIENTED_EDGE('',*,*,#157,.F.);
#101=ORIENTED_EDGE('',*,*,#158,.T.);
#102=ORIENTED_EDGE('',*,*,#130,.T.);
#103=ORIENTED_EDGE('',*,*,#157,.T.);
#104=ORIENTED_EDGE('',*,*,#155,.T.);
#105=ORIENTED_EDGE('',*,*,#153,.T.);
#106=ORIENTED_EDGE('',*,*,#150,.T.);
#107=ORIENTED_EDGE('',*,*,#147,.T.);
#108=ORIENTED_EDGE('',*,*,#144,.T.);
#109=ORIENTED_EDGE('',*,*,#141,.T.);
#110=ORIENTED_EDGE('',*,*,#138,.T.);
#111=ORIENTED_EDGE('',*,*,#135,.T.);
#112=ORIENTED_EDGE('',*,*,#131,.T.);
#113=ORIENTED_EDGE('',*,*,#158,.F.);
#114=ORIENTED_EDGE('',*,*,#159,.F.);
#115=ORIENTED_EDGE('',*,*,#160,.F.);
#116=ORIENTED_EDGE('',*,*,#156,.F.);
#117=ORIENTED_EDGE('',*,*,#128,.F.);
#118=ORIENTED_EDGE('',*,*,#160,.T.);
#119=ORIENTED_EDGE('',*,*,#159,.T.);
#120=ORIENTED_EDGE('',*,*,#154,.F.);
#121=ORIENTED_EDGE('',*,*,#133,.F.);
#122=ORIENTED_EDGE('',*,*,#137,.F.);
#123=ORIENTED_EDGE('',*,*,#140,.F.);
#124=ORIENTED_EDGE('',*,*,#143,.F.);
#125=ORIENTED_EDGE('',*,*,#146,.F.);
#126=ORIENTED_EDGE('',*,*,#149,.F.);
#127=ORIENTED_EDGE('',*,*,#152,.F.);
#128=EDGE_CURVE('',#161,#161,#186,.F.);
#129=EDGE_CURVE('',#162,#162,#187,.F.);
#130=EDGE_CURVE('',#163,#163,#188,.F.);
#131=EDGE_CURVE('',#164,#165,#24,.T.);
#132=EDGE_CURVE('',#166,#164,#25,.T.);
#133=EDGE_CURVE('',#166,#167,#26,.T.);
#134=EDGE_CURVE('',#167,#165,#27,.T.);
#135=EDGE_CURVE('',#168,#164,#189,.T.);
#136=EDGE_CURVE('',#169,#168,#28,.T.);
#137=EDGE_CURVE('',#169,#166,#190,.T.);
#138=EDGE_CURVE('',#170,#168,#29,.T.);
#139=EDGE_CURVE('',#171,#170,#30,.T.);
#140=EDGE_CURVE('',#171,#169,#31,.T.);
#141=EDGE_CURVE('',#172,#170,#191,.T.);
#142=EDGE_CURVE('',#173,#172,#32,.T.);
#143=EDGE_CURVE('',#173,#171,#192,.T.);
#144=EDGE_CURVE('',#174,#172,#33,.T.);
#145=EDGE_CURVE('',#175,#174,#34,.T.);
#146=EDGE_CURVE('',#175,#173,#35,.T.);
#147=EDGE_CURVE('',#176,#174,#193,.T.);
#148=EDGE_CURVE('',#177,#176,#36,.T.);
#149=EDGE_CURVE('',#177,#175,#194,.T.);
#150=EDGE_CURVE('',#178,#176,#37,.T.);
#151=EDGE_CURVE('',#179,#178,#38,.T.);
#152=EDGE_CURVE('',#179,#177,#39,.T.);
#153=EDGE_CURVE('',#165,#178,#195,.T.);
#154=EDGE_CURVE('',#167,#179,#196,.T.);
#155=EDGE_CURVE('',#180,#180,#197,.F.);
#156=EDGE_CURVE('',#181,#181,#198,.F.);
#157=EDGE_CURVE('',#182,#182,#199,.F.);
#158=EDGE_CURVE('',#183,#183,#200,.F.);
#159=EDGE_CURVE('',#184,#184,#201,.T.);
#160=EDGE_CURVE('',#185,#185,#202,.T.);
#161=VERTEX_POINT('',#520);
#162=VERTEX_POINT('',#522);
#163=VERTEX_POINT('',#525);
#164=VERTEX_POINT('',#528);
#165=VERTEX_POINT('',#529);
#166=VERTEX_POINT('',#531);
#167=VERTEX_POINT('',#533);
#168=VERTEX_POINT('',#537);
#169=VERTEX_POINT('',#539);
#170=VERTEX_POINT('',#543);
#171=VERTEX_POINT('',#545);
#172=VERTEX_POINT('',#549);
#173=VERTEX_POINT('',#551);
#174=VERTEX_POINT('',#555);
#175=VERTEX_POINT('',#557);
#176=VERTEX_POINT('',#561);
#177=VERTEX_POINT('',#563);
#178=VERTEX_POINT('',#567);
#179=VERTEX_POINT('',#569);
#180=VERTEX_POINT('',#576);
#181=VERTEX_POINT('',#578);
#182=VERTEX_POINT('',#581);
#183=VERTEX_POINT('',#583);
#184=VERTEX_POINT('',#587);
#185=VERTEX_POINT('',#590);
#186=CIRCLE('',#401,4.1);
#187=CIRCLE('',#402,2.1);
#188=CIRCLE('',#404,4.1);
#189=CIRCLE('',#407,0.3);
#190=CIRCLE('',#408,0.3);
#191=CIRCLE('',#411,0.3);
#192=CIRCLE('',#412,0.3);
#193=CIRCLE('',#415,0.3);
#194=CIRCLE('',#416,0.3);
#195=CIRCLE('',#419,0.3);
#196=CIRCLE('',#420,0.3);
#197=CIRCLE('',#422,4.1);
#198=CIRCLE('',#423,2.1);
#199=CIRCLE('',#425,4.1);
#200=CIRCLE('',#426,2.1);
#201=CIRCLE('',#429,4.1);
#202=CIRCLE('',#431,4.1);
#203=EDGE_LOOP('',(#62));
#204=EDGE_LOOP('',(#63));
#205=EDGE_LOOP('',(#64));
#206=EDGE_LOOP('',(#65));
#207=EDGE_LOOP('',(#66,#67,#68,#69));
#208=EDGE_LOOP('',(#70,#71,#72,#73));
#209=EDGE_LOOP('',(#74,#75,#76,#77));
#210=EDGE_LOOP('',(#78,#79,#80,#81));
#211=EDGE_LOOP('',(#82,#83,#84,#85));
#212=EDGE_LOOP('',(#86,#87,#88,#89));
#213=EDGE_LOOP('',(#90,#91,#92,#93));
#214=EDGE_LOOP('',(#94,#95,#96,#97));
#215=EDGE_LOOP('',(#98));
#216=EDGE_LOOP('',(#99));
#217=EDGE_LOOP('',(#100));
#218=EDGE_LOOP('',(#101));
#219=EDGE_LOOP('',(#102));
#220=EDGE_LOOP('',(#103));
#221=EDGE_LOOP('',(#104));
#222=EDGE_LOOP('',(#105,#106,#107,#108,#109,#110,#111,#112));
#223=EDGE_LOOP('',(#113));
#224=EDGE_LOOP('',(#114));
#225=EDGE_LOOP('',(#115));
#226=EDGE_LOOP('',(#116));
#227=EDGE_LOOP('',(#117));
#228=EDGE_LOOP('',(#118));
#229=EDGE_LOOP('',(#119));
#230=EDGE_LOOP('',(#120,#121,#122,#123,#124,#125,#126,#127));
#231=FACE_BOUND('',#203,.T.);
#232=FACE_BOUND('',#204,.T.);
#233=FACE_BOUND('',#205,.T.);
#234=FACE_BOUND('',#206,.T.);
#235=FACE_BOUND('',#207,.T.);
#236=FACE_BOUND('',#208,.T.);
#237=FACE_BOUND('',#209,.T.);
#238=FACE_BOUND('',#210,.T.);
#239=FACE_BOUND('',#211,.T.);
#240=FACE_BOUND('',#212,.T.);
#241=FACE_BOUND('',#213,.T.);
#242=FACE_BOUND('',#214,.T.);
#243=FACE_BOUND('',#215,.T.);
#244=FACE_BOUND('',#216,.T.);
#245=FACE_BOUND('',#217,.T.);
#246=FACE_BOUND('',#218,.T.);
#247=FACE_BOUND('',#219,.T.);
#248=FACE_BOUND('',#220,.T.);
#249=FACE_BOUND('',#221,.T.);
#250=FACE_BOUND('',#222,.T.);
#251=FACE_BOUND('',#223,.T.);
#252=FACE_BOUND('',#224,.T.);
#253=FACE_BOUND('',#225,.T.);
#254=FACE_BOUND('',#226,.T.);
#255=FACE_BOUND('',#227,.T.);
#256=FACE_BOUND('',#228,.T.);
#257=FACE_BOUND('',#229,.T.);
#258=FACE_BOUND('',#230,.T.);
#259=CONICAL_SURFACE('',#400,4.1,0.785398163397448);
#260=CONICAL_SURFACE('',#403,2.1,0.785398163397448);
#261=CONICAL_SURFACE('',#421,2.1,0.785398163397448);
#262=CONICAL_SURFACE('',#424,2.1,0.785398163397448);
#263=CONICAL_SURFACE('',#428,4.1,0.785398163397448);
#264=CONICAL_SURFACE('',#430,4.1,0.785398163397448);
#265=STYLED_ITEM('',(#281),#379);
#266=STYLED_ITEM('',(#282),#380);
#267=STYLED_ITEM('',(#283),#381);
#268=STYLED_ITEM('',(#284),#382);
#269=STYLED_ITEM('',(#285),#383);
#270=STYLED_ITEM('',(#286),#384);
#271=STYLED_ITEM('',(#287),#385);
#272=STYLED_ITEM('',(#288),#386);
#273=STYLED_ITEM('',(#289),#387);
#274=STYLED_ITEM('',(#290),#388);
#275=STYLED_ITEM('',(#291),#389);
#276=STYLED_ITEM('',(#292),#390);
#277=STYLED_ITEM('',(#293),#391);
#278=STYLED_ITEM('',(#294),#392);
#279=STYLED_ITEM('',(#295),#393);
#280=STYLED_ITEM('',(#296),#394);
#281=PRESENTATION_STYLE_ASSIGNMENT((#297));
#282=PRESENTATION_STYLE_ASSIGNMENT((#298));
#283=PRESENTATION_STYLE_ASSIGNMENT((#299));
#284=PRESENTATION_STYLE_ASSIGNMENT((#300));
#285=PRESENTATION_STYLE_ASSIGNMENT((#301));
#286=PRESENTATION_STYLE_ASSIGNMENT((#302));
#287=PRESENTATION_STYLE_ASSIGNMENT((#303));
#288=PRESENTATION_STYLE_ASSIGNMENT((#304));
#289=PRESENTATION_STYLE_ASSIGNMENT((#305));
#290=PRESENTATION_STYLE_ASSIGNMENT((#306));
#291=PRESENTATION_STYLE_ASSIGNMENT((#307));
#292=PRESENTATION_STYLE_ASSIGNMENT((#308));
#293=PRESENTATION_STYLE_ASSIGNMENT((#309));
#294=PRESENTATION_STYLE_ASSIGNMENT((#310));
#295=PRESENTATION_STYLE_ASSIGNMENT((#311));
#296=PRESENTATION_STYLE_ASSIGNMENT((#312));
#297=SURFACE_STYLE_USAGE(.BOTH.,#313);
#298=SURFACE_STYLE_USAGE(.BOTH.,#314);
#299=SURFACE_STYLE_USAGE(.BOTH.,#315);
#300=SURFACE_STYLE_USAGE(.BOTH.,#316);
#301=SURFACE_STYLE_USAGE(.BOTH.,#317);
#302=SURFACE_STYLE_USAGE(.BOTH.,#318);
#303=SURFACE_STYLE_USAGE(.BOTH.,#319);
#304=SURFACE_STYLE_USAGE(.BOTH.,#320);
#305=SURFACE_STYLE_USAGE(.BOTH.,#321);
#306=SURFACE_STYLE_USAGE(.BOTH.,#322);
#307=SURFACE_STYLE_USAGE(.BOTH.,#323);
#308=SURFACE_STYLE_USAGE(.BOTH.,#324);
#309=SURFACE_STYLE_USAGE(.BOTH.,#325);
#310=SURFACE_STYLE_USAGE(.BOTH.,#326);
#311=SURFACE_STYLE_USAGE(.BOTH.,#327);
#312=SURFACE_STYLE_USAGE(.BOTH.,#328);
#313=SURFACE_SIDE_STYLE('',(#329));
#314=SURFACE_SIDE_STYLE('',(#330));
#315=SURFACE_SIDE_STYLE('',(#331));
#316=SURFACE_SIDE_STYLE('',(#332));
#317=SURFACE_SIDE_STYLE('',(#333));
#318=SURFACE_SIDE_STYLE('',(#334));
#319=SURFACE_SIDE_STYLE('',(#335));
#320=SURFACE_SIDE_STYLE('',(#336));
#321=SURFACE_SIDE_STYLE('',(#337));
#322=SURFACE_SIDE_STYLE('',(#338));
#323=SURFACE_SIDE_STYLE('',(#339));
#324=SURFACE_SIDE_STYLE('',(#340));
#325=SURFACE_SIDE_STYLE('',(#341));
#326=SURFACE_SIDE_STYLE('',(#342));
#327=SURFACE_SIDE_STYLE('',(#343));
#328=SURFACE_SIDE_STYLE('',(#344));
#329=SURFACE_STYLE_FILL_AREA(#345);
#330=SURFACE_STYLE_FILL_AREA(#346);
#331=SURFACE_STYLE_FILL_AREA(#347);
#332=SURFACE_STYLE_FILL_AREA(#348);
#333=SURFACE_STYLE_FILL_AREA(#349);
#334=SURFACE_STYLE_FILL_AREA(#350);
#335=SURFACE_STYLE_FILL_AREA(#351);
#336=SURFACE_STYLE_FILL_AREA(#352);
#337=SURFACE_STYLE_FILL_AREA(#353);
#338=SURFACE_STYLE_FILL_AREA(#354);
#339=SURFACE_STYLE_FILL_AREA(#355);
#340=SURFACE_STYLE_FILL_AREA(#356);
#341=SURFACE_STYLE_FILL_AREA(#357);
#342=SURFACE_STYLE_FILL_AREA(#358);
#343=SURFACE_STYLE_FILL_AREA(#359);
#344=SURFACE_STYLE_FILL_AREA(#360);
#345=FILL_AREA_STYLE('',(#361));
#346=FILL_AREA_STYLE('',(#362));
#347=FILL_AREA_STYLE('',(#363));
#348=FILL_AREA_STYLE('',(#364));
#349=FILL_AREA_STYLE('',(#365));
#350=FILL_AREA_STYLE('',(#366));
#351=FILL_AREA_STYLE('',(#367));
#352=FILL_AREA_STYLE('',(#368));
#353=FILL_AREA_STYLE('',(#369));
#354=FILL_AREA_STYLE('',(#370));
#355=FILL_AREA_STYLE('',(#371));
#356=FILL_AREA_STYLE('',(#372));
#357=FILL_AREA_STYLE('',(#373));
#358=FILL_AREA_STYLE('',(#374));
#359=FILL_AREA_STYLE('',(#375));
#360=FILL_AREA_STYLE('',(#376));
#361=FILL_AREA_STYLE_COLOUR('',#377);
#362=FILL_AREA_STYLE_COLOUR('',#377);
#363=FILL_AREA_STYLE_COLOUR('',#378);
#364=FILL_AREA_STYLE_COLOUR('',#378);
#365=FILL_AREA_STYLE_COLOUR('',#378);
#366=FILL_AREA_STYLE_COLOUR('',#378);
#367=FILL_AREA_STYLE_COLOUR('',#378);
#368=FILL_AREA_STYLE_COLOUR('',#378);
#369=FILL_AREA_STYLE_COLOUR('',#378);
#370=FILL_AREA_STYLE_COLOUR('',#378);
#371=FILL_AREA_STYLE_COLOUR('',#377);
#372=FILL_AREA_STYLE_COLOUR('',#377);
#373=FILL_AREA_STYLE_COLOUR('',#378);
#374=FILL_AREA_STYLE_COLOUR('',#377);
#375=FILL_AREA_STYLE_COLOUR('',#377);
#376=FILL_AREA_STYLE_COLOUR('',#378);
#377=COLOUR_RGB('',0.331739127635956,0.340869575738907,0.349999994039536);
#378=COLOUR_RGB('',0.74039214849472,0.778039216995239,0.800000011920929);
#379=ADVANCED_FACE('',(#231,#232),#259,.F.);
#380=ADVANCED_FACE('',(#233,#234),#260,.F.);
#381=ADVANCED_FACE('',(#235),#56,.T.);
#382=ADVANCED_FACE('',(#236),#20,.T.);
#383=ADVANCED_FACE('',(#237),#57,.T.);
#384=ADVANCED_FACE('',(#238),#21,.T.);
#385=ADVANCED_FACE('',(#239),#58,.T.);
#386=ADVANCED_FACE('',(#240),#22,.T.);
#387=ADVANCED_FACE('',(#241),#59,.T.);
#388=ADVANCED_FACE('',(#242),#23,.T.);
#389=ADVANCED_FACE('',(#243,#244),#261,.F.);
#390=ADVANCED_FACE('',(#245,#246),#262,.F.);
#391=ADVANCED_FACE('',(#247,#248,#249,#250),#60,.T.);
#392=ADVANCED_FACE('',(#251,#252),#263,.F.);
#393=ADVANCED_FACE('',(#253,#254),#264,.F.);
#394=ADVANCED_FACE('',(#255,#256,#257,#258),#61,.F.);
#395=CLOSED_SHELL('',(#379,#380,#381,#382,#383,#384,#385,#386,#387,#388,
#389,#390,#391,#392,#393,#394));
#396=MANIFOLD_SOLID_BREP('',#395);
#397=SHAPE_DEFINITION_REPRESENTATION(#598,#398);
#398=SHAPE_REPRESENTATION('3842-PROF-B10M cover',(#399),#593);
#399=AXIS2_PLACEMENT_3D('',#517,#433,#434);
#400=AXIS2_PLACEMENT_3D('',#518,#435,#436);
#401=AXIS2_PLACEMENT_3D('',#519,#437,#438);
#402=AXIS2_PLACEMENT_3D('',#521,#439,#440);
#403=AXIS2_PLACEMENT_3D('',#523,#441,#442);
#404=AXIS2_PLACEMENT_3D('',#524,#443,#444);
#405=AXIS2_PLACEMENT_3D('',#526,#445,#446);
#406=AXIS2_PLACEMENT_3D('',#535,#451,#452);
#407=AXIS2_PLACEMENT_3D('',#536,#453,#454);
#408=AXIS2_PLACEMENT_3D('',#540,#456,#457);
#409=AXIS2_PLACEMENT_3D('',#541,#458,#459);
#410=AXIS2_PLACEMENT_3D('',#547,#463,#464);
#411=AXIS2_PLACEMENT_3D('',#548,#465,#466);
#412=AXIS2_PLACEMENT_3D('',#552,#468,#469);
#413=AXIS2_PLACEMENT_3D('',#553,#470,#471);
#414=AXIS2_PLACEMENT_3D('',#559,#475,#476);
#415=AXIS2_PLACEMENT_3D('',#560,#477,#478);
#416=AXIS2_PLACEMENT_3D('',#564,#480,#481);
#417=AXIS2_PLACEMENT_3D('',#565,#482,#483);
#418=AXIS2_PLACEMENT_3D('',#571,#487,#488);
#419=AXIS2_PLACEMENT_3D('',#572,#489,#490);
#420=AXIS2_PLACEMENT_3D('',#573,#491,#492);
#421=AXIS2_PLACEMENT_3D('',#574,#493,#494);
#422=AXIS2_PLACEMENT_3D('',#575,#495,#496);
#423=AXIS2_PLACEMENT_3D('',#577,#497,#498);
#424=AXIS2_PLACEMENT_3D('',#579,#499,#500);
#425=AXIS2_PLACEMENT_3D('',#580,#501,#502);
#426=AXIS2_PLACEMENT_3D('',#582,#503,#504);
#427=AXIS2_PLACEMENT_3D('',#584,#505,#506);
#428=AXIS2_PLACEMENT_3D('',#585,#507,#508);
#429=AXIS2_PLACEMENT_3D('',#586,#509,#510);
#430=AXIS2_PLACEMENT_3D('',#588,#511,#512);
#431=AXIS2_PLACEMENT_3D('',#589,#513,#514);
#432=AXIS2_PLACEMENT_3D('',#591,#515,#516);
#433=DIRECTION('',(0.,0.,1.));
#434=DIRECTION('',(1.,0.,0.));
#435=DIRECTION('',(0.,0.,1.));
#436=DIRECTION('',(1.,0.,0.));
#437=DIRECTION('',(0.,0.,-1.));
#438=DIRECTION('',(-1.,0.,0.));
#439=DIRECTION('',(0.,0.,-1.));
#440=DIRECTION('',(-1.,0.,0.));
#441=DIRECTION('',(0.,0.,-1.));
#442=DIRECTION('',(-1.,0.,0.));
#443=DIRECTION('',(0.,0.,-1.));
#444=DIRECTION('',(-1.,0.,0.));
#445=DIRECTION('',(1.,0.,0.));
#446=DIRECTION('',(0.,0.,-1.));
#447=DIRECTION('',(0.,-1.,0.));
#448=DIRECTION('',(0.,0.,-1.));
#449=DIRECTION('',(0.,-1.,0.));
#450=DIRECTION('',(0.,0.,-1.));
#451=DIRECTION('',(0.,0.,-1.));
#452=DIRECTION('',(-1.,0.,0.));
#453=DIRECTION('',(0.,0.,-1.));
#454=DIRECTION('',(-1.,0.,0.));
#455=DIRECTION('',(0.,0.,-1.));
#456=DIRECTION('',(0.,0.,-1.));
#457=DIRECTION('',(-1.,0.,0.));
#458=DIRECTION('',(1.68829535374871E-16,1.,0.));
#459=DIRECTION('',(-1.,1.68829535374871E-16,0.));
#460=DIRECTION('',(1.,-1.68829535374871E-16,0.));
#461=DIRECTION('',(0.,0.,-1.));
#462=DIRECTION('',(1.,-1.68829535374871E-16,0.));
#463=DIRECTION('',(0.,0.,-1.));
#464=DIRECTION('',(-1.,0.,0.));
#465=DIRECTION('',(0.,0.,-1.));
#466=DIRECTION('',(1.,0.,0.));
#467=DIRECTION('',(0.,0.,-1.));
#468=DIRECTION('',(0.,0.,-1.));
#469=DIRECTION('',(1.,0.,0.));
#470=DIRECTION('',(-1.,1.3966482168804E-16,0.));
#471=DIRECTION('',(-1.3966482168804E-16,-1.,0.));
#472=DIRECTION('',(1.3966482168804E-16,1.,0.));
#473=DIRECTION('',(0.,0.,-1.));
#474=DIRECTION('',(1.3966482168804E-16,1.,0.));
#475=DIRECTION('',(0.,0.,-1.));
#476=DIRECTION('',(-1.,0.,0.));
#477=DIRECTION('',(0.,0.,-1.));
#478=DIRECTION('',(1.,0.,0.));
#479=DIRECTION('',(0.,0.,-1.));
#480=DIRECTION('',(0.,0.,-1.));
#481=DIRECTION('',(1.,0.,0.));
#482=DIRECTION('',(1.01297721224923E-15,-1.,0.));
#483=DIRECTION('',(1.,1.01297721224923E-15,0.));
#484=DIRECTION('',(-1.,-1.01297721224923E-15,0.));
#485=DIRECTION('',(0.,0.,-1.));
#486=DIRECTION('',(-1.,-1.01297721224923E-15,0.));
#487=DIRECTION('',(0.,0.,-1.));
#488=DIRECTION('',(-1.,0.,0.));
#489=DIRECTION('',(0.,0.,-1.));
#490=DIRECTION('',(1.,0.,0.));
#491=DIRECTION('',(0.,0.,-1.));
#492=DIRECTION('',(1.,0.,0.));
#493=DIRECTION('',(0.,0.,-1.));
#494=DIRECTION('',(-1.,0.,0.));
#495=DIRECTION('',(0.,0.,-1.));
#496=DIRECTION('',(-1.,0.,0.));
#497=DIRECTION('',(0.,0.,-1.));
#498=DIRECTION('',(-1.,0.,0.));
#499=DIRECTION('',(0.,0.,-1.));
#500=DIRECTION('',(-1.,0.,0.));
#501=DIRECTION('',(0.,0.,-1.));
#502=DIRECTION('',(-1.,0.,0.));
#503=DIRECTION('',(0.,0.,-1.));
#504=DIRECTION('',(-1.,0.,0.));
#505=DIRECTION('',(0.,0.,-1.));
#506=DIRECTION('',(-1.,0.,0.));
#507=DIRECTION('',(0.,0.,1.));
#508=DIRECTION('',(1.,0.,0.));
#509=DIRECTION('',(0.,0.,-1.));
#510=DIRECTION('',(-1.,0.,0.));
#511=DIRECTION('',(0.,0.,1.));
#512=DIRECTION('',(1.,0.,0.));
#513=DIRECTION('',(0.,0.,-1.));
#514=DIRECTION('',(-1.,0.,0.));
#515=DIRECTION('',(0.,0.,-1.));
#516=DIRECTION('',(-1.,0.,0.));
#517=CARTESIAN_POINT('',(0.,0.,0.));
#518=CARTESIAN_POINT('',(10.,18.0999999999999,2.));
#519=CARTESIAN_POINT('',(10.,18.0999999999999,2.));
#520=CARTESIAN_POINT('',(5.90000000000003,18.0999999999999,2.));
#521=CARTESIAN_POINT('',(10.,18.0999999999999,0.));
#522=CARTESIAN_POINT('',(7.90000000000003,18.0999999999999,0.));
#523=CARTESIAN_POINT('',(10.,18.0999999999999,0.));
#524=CARTESIAN_POINT('',(10.,18.0999999999999,-2.));
#525=CARTESIAN_POINT('',(5.90000000000003,18.0999999999999,-2.));
#526=CARTESIAN_POINT('',(41.7000000000001,37.9500000000001,2.));
#527=CARTESIAN_POINT('',(41.7000000000001,37.9500000000001,-2.));
#528=CARTESIAN_POINT('',(41.7000000000001,37.9500000000001,-2.));
#529=CARTESIAN_POINT('',(41.7000000000001,0.300000000000022,-2.));
#530=CARTESIAN_POINT('',(41.7000000000001,37.9500000000001,2.));
#531=CARTESIAN_POINT('',(41.7000000000001,37.9500000000001,2.));
#532=CARTESIAN_POINT('',(41.7000000000001,37.9500000000001,2.));
#533=CARTESIAN_POINT('',(41.7000000000001,0.300000000000022,2.));
#534=CARTESIAN_POINT('',(41.7000000000001,0.300000000000022,2.));
#535=CARTESIAN_POINT('',(41.4000000000001,37.9500000000001,2.));
#536=CARTESIAN_POINT('',(41.4000000000001,37.9500000000001,-2.));
#537=CARTESIAN_POINT('',(41.4000000000001,38.25,-2.));
#538=CARTESIAN_POINT('',(41.4000000000001,38.25,2.));
#539=CARTESIAN_POINT('',(41.4000000000001,38.25,2.));
#540=CARTESIAN_POINT('',(41.4000000000001,37.9500000000001,2.));
#541=CARTESIAN_POINT('',(0.299999999999995,38.2500000000001,2.));
#542=CARTESIAN_POINT('',(0.299999999999995,38.2500000000001,-2.));
#543=CARTESIAN_POINT('',(0.299999999999995,38.2500000000001,-2.));
#544=CARTESIAN_POINT('',(0.299999999999995,38.2500000000001,2.));
#545=CARTESIAN_POINT('',(0.299999999999995,38.2500000000001,2.));
#546=CARTESIAN_POINT('',(0.299999999999995,38.2500000000001,2.));
#547=CARTESIAN_POINT('',(0.300000000000009,37.9500000000001,2.));
#548=CARTESIAN_POINT('',(0.300000000000009,37.9500000000001,-2.));
#549=CARTESIAN_POINT('',(0.,37.9500000000001,-2.));
#550=CARTESIAN_POINT('',(0.,37.9500000000001,2.));
#551=CARTESIAN_POINT('',(0.,37.9500000000001,2.));
#552=CARTESIAN_POINT('',(0.300000000000009,37.9500000000001,2.));
#553=CARTESIAN_POINT('',(-5.2583805365547E-15,0.299999999999995,2.));
#554=CARTESIAN_POINT('',(-5.2583805365547E-15,0.299999999999995,-2.));
#555=CARTESIAN_POINT('',(-5.2583805365547E-15,0.299999999999995,-2.));
#556=CARTESIAN_POINT('',(-5.2583805365547E-15,0.299999999999995,2.));
#557=CARTESIAN_POINT('',(-5.2583805365547E-15,0.299999999999995,2.));
#558=CARTESIAN_POINT('',(-5.2583805365547E-15,0.299999999999995,2.));
#559=CARTESIAN_POINT('',(0.299999999999995,0.299999999999995,2.));
#560=CARTESIAN_POINT('',(0.299999999999995,0.299999999999995,-2.));
#561=CARTESIAN_POINT('',(0.299999999999995,-5.2583805365547E-15,-2.));
#562=CARTESIAN_POINT('',(0.299999999999995,-5.2583805365547E-15,2.));
#563=CARTESIAN_POINT('',(0.299999999999995,-5.2583805365547E-15,2.));
#564=CARTESIAN_POINT('',(0.299999999999995,0.299999999999995,2.));
#565=CARTESIAN_POINT('',(41.4000000000001,3.63749828868887E-14,2.));
#566=CARTESIAN_POINT('',(41.4000000000001,3.63749828868887E-14,-2.));
#567=CARTESIAN_POINT('',(41.4000000000001,3.63749828868887E-14,-2.));
#568=CARTESIAN_POINT('',(41.4000000000001,3.63749828868887E-14,2.));
#569=CARTESIAN_POINT('',(41.4000000000001,3.63749828868887E-14,2.));
#570=CARTESIAN_POINT('',(41.4000000000001,3.63749828868887E-14,2.));
#571=CARTESIAN_POINT('',(41.4000000000001,0.300000000000036,2.));
#572=CARTESIAN_POINT('',(41.4000000000001,0.300000000000036,-2.));
#573=CARTESIAN_POINT('',(41.4000000000001,0.300000000000036,2.));
#574=CARTESIAN_POINT('',(23.6,31.0999999999999,0.));
#575=CARTESIAN_POINT('',(23.6,31.0999999999999,-2.));
#576=CARTESIAN_POINT('',(19.5,31.0999999999999,-2.));
#577=CARTESIAN_POINT('',(23.6,31.0999999999999,0.));
#578=CARTESIAN_POINT('',(21.5,31.0999999999999,0.));
#579=CARTESIAN_POINT('',(28.6,5.10000000000004,0.));
#580=CARTESIAN_POINT('',(28.6,5.10000000000004,-2.));
#581=CARTESIAN_POINT('',(24.5,5.10000000000004,-2.));
#582=CARTESIAN_POINT('',(28.6,5.10000000000004,0.));
#583=CARTESIAN_POINT('',(26.5,5.10000000000004,0.));
#584=CARTESIAN_POINT('',(41.4000000000001,0.300000000000036,-2.));
#585=CARTESIAN_POINT('',(28.6,5.10000000000004,2.));
#586=CARTESIAN_POINT('',(28.6,5.10000000000004,2.));
#587=CARTESIAN_POINT('',(24.5,5.10000000000004,2.));
#588=CARTESIAN_POINT('',(23.6,31.0999999999999,2.));
#589=CARTESIAN_POINT('',(23.6,31.0999999999999,2.));
#590=CARTESIAN_POINT('',(19.5,31.0999999999999,2.));
#591=CARTESIAN_POINT('',(41.4000000000001,0.300000000000036,2.));
#592=MECHANICAL_DESIGN_GEOMETRIC_PRESENTATION_REPRESENTATION('',(#265,#266,
#267,#268,#269,#270,#271,#272,#273,#274,#275,#276,#277,#278,#279,#280),
#593);
#593=(
GEOMETRIC_REPRESENTATION_CONTEXT(3)
GLOBAL_UNCERTAINTY_ASSIGNED_CONTEXT((#594))
GLOBAL_UNIT_ASSIGNED_CONTEXT((#597,#596,#595))
REPRESENTATION_CONTEXT('3842-PROF-B10M cover','TOP_LEVEL_ASSEMBLY_PART')
);
#594=UNCERTAINTY_MEASURE_WITH_UNIT(LENGTH_MEASURE(0.005),#597,
'DISTANCE_ACCURACY_VALUE','Maximum Tolerance applied to model');
#595=(
NAMED_UNIT(*)
SI_UNIT($,.STERADIAN.)
SOLID_ANGLE_UNIT()
);
#596=(
NAMED_UNIT(*)
PLANE_ANGLE_UNIT()
SI_UNIT($,.RADIAN.)
);
#597=(
LENGTH_UNIT()
NAMED_UNIT(*)
SI_UNIT(.MILLI.,.METRE.)
);
#598=PRODUCT_DEFINITION_SHAPE('','',#599);
#599=PRODUCT_DEFINITION('','',#601,#600);
#600=PRODUCT_DEFINITION_CONTEXT('',#607,'design');
#601=PRODUCT_DEFINITION_FORMATION_WITH_SPECIFIED_SOURCE('','',#603,
 .NOT_KNOWN.);
#602=PRODUCT_RELATED_PRODUCT_CATEGORY('','',(#603));
#603=PRODUCT('3842-PROF-B10M cover','3842-PROF-B10M cover',
'3842-PROF-B10M cover',(#605));
#604=PRODUCT_CATEGORY('','');
#605=PRODUCT_CONTEXT('',#607,'mechanical');
#606=APPLICATION_PROTOCOL_DEFINITION('international standard',
'automotive_design',2010,#607);
#607=APPLICATION_CONTEXT(
'core data for automotive mechanical design processes');
ENDSEC;
END-ISO-10303-21;
