ISO-10303-21;
HEADER;
/* Generated by software containing ST-Developer
 * from STEP Tools, Inc. (www.steptools.com) 
 */
/* OPTION: strings as raw bytes, not using required /X/ escapes */

FILE_DESCRIPTION(
/* description */ ('Unknown'),
/* implementation_level */ '2;1');

FILE_NAME(
/* name */ '8300E-7',
/* time_stamp */ '2016-12-19T09:07:43+01:00',
/* author */ ('Unknown'),
/* organization */ ('Unknown'),
/* preprocessor_version */ 'ST-DEVELOPER v16.7',
/* originating_system */ 'DEX',
/* authorisation */ $);

FILE_SCHEMA (('AUTOMOTIVE_DESIGN {1 0 10303 214 3 1 1}'));
ENDSEC;

DATA;
#10=PROPERTY_DEFINITION_REPRESENTATION(#14,#12);
#11=PROPERTY_DEFINITION_REPRESENTATION(#15,#13);
#12=REPRESENTATION('',(#16),#247);
#13=REPRESENTATION('',(#17),#247);
#14=PROPERTY_DEFINITION('pmi validation property','',#252);
#15=PROPERTY_DEFINITION('pmi validation property','',#252);
#16=VALUE_REPRESENTATION_ITEM('number of annotations',COUNT_MEASURE(0.));
#17=VALUE_REPRESENTATION_ITEM('number of views',COUNT_MEASURE(0.));
#18=SHAPE_REPRESENTATION_RELATIONSHIP('','',#169,#19);
#19=ADVANCED_BREP_SHAPE_REPRESENTATION('',(#167),#247);
#20=CONICAL_SURFACE('',#183,5.053,0.785398163397448);
#21=CONICAL_SURFACE('',#184,5.553,0.785398163397448);
#22=CONICAL_SURFACE('',#185,34.5,0.785398163397448);
#23=CONICAL_SURFACE('',#186,35.,0.785398163397448);
#24=PLANE('',#174);
#25=PLANE('',#177);
#26=ORIENTED_EDGE('',*,*,#42,.T.);
#27=ORIENTED_EDGE('',*,*,#43,.T.);
#28=ORIENTED_EDGE('',*,*,#44,.T.);
#29=ORIENTED_EDGE('',*,*,#45,.T.);
#30=ORIENTED_EDGE('',*,*,#46,.T.);
#31=ORIENTED_EDGE('',*,*,#47,.T.);
#32=ORIENTED_EDGE('',*,*,#48,.T.);
#33=ORIENTED_EDGE('',*,*,#49,.T.);
#34=ORIENTED_EDGE('',*,*,#46,.F.);
#35=ORIENTED_EDGE('',*,*,#48,.F.);
#36=ORIENTED_EDGE('',*,*,#49,.F.);
#37=ORIENTED_EDGE('',*,*,#44,.F.);
#38=ORIENTED_EDGE('',*,*,#42,.F.);
#39=ORIENTED_EDGE('',*,*,#47,.F.);
#40=ORIENTED_EDGE('',*,*,#45,.F.);
#41=ORIENTED_EDGE('',*,*,#43,.F.);
#42=EDGE_CURVE('',#50,#50,#58,.F.);
#43=EDGE_CURVE('',#51,#51,#59,.T.);
#44=EDGE_CURVE('',#52,#52,#60,.T.);
#45=EDGE_CURVE('',#53,#53,#61,.F.);
#46=EDGE_CURVE('',#54,#54,#62,.F.);
#47=EDGE_CURVE('',#55,#55,#63,.T.);
#48=EDGE_CURVE('',#56,#56,#64,.T.);
#49=EDGE_CURVE('',#57,#57,#65,.F.);
#50=VERTEX_POINT('',#224);
#51=VERTEX_POINT('',#226);
#52=VERTEX_POINT('',#229);
#53=VERTEX_POINT('',#231);
#54=VERTEX_POINT('',#234);
#55=VERTEX_POINT('',#236);
#56=VERTEX_POINT('',#239);
#57=VERTEX_POINT('',#241);
#58=CIRCLE('',#172,35.);
#59=CIRCLE('',#173,35.);
#60=CIRCLE('',#175,5.553);
#61=CIRCLE('',#176,34.5);
#62=CIRCLE('',#178,5.553);
#63=CIRCLE('',#179,34.5);
#64=CIRCLE('',#181,5.053);
#65=CIRCLE('',#182,5.053);
#66=EDGE_LOOP('',(#26));
#67=EDGE_LOOP('',(#27));
#68=EDGE_LOOP('',(#28));
#69=EDGE_LOOP('',(#29));
#70=EDGE_LOOP('',(#30));
#71=EDGE_LOOP('',(#31));
#72=EDGE_LOOP('',(#32));
#73=EDGE_LOOP('',(#33));
#74=EDGE_LOOP('',(#34));
#75=EDGE_LOOP('',(#35));
#76=EDGE_LOOP('',(#36));
#77=EDGE_LOOP('',(#37));
#78=EDGE_LOOP('',(#38));
#79=EDGE_LOOP('',(#39));
#80=EDGE_LOOP('',(#40));
#81=EDGE_LOOP('',(#41));
#82=FACE_BOUND('',#66,.T.);
#83=FACE_BOUND('',#67,.T.);
#84=FACE_BOUND('',#68,.T.);
#85=FACE_BOUND('',#69,.T.);
#86=FACE_BOUND('',#70,.T.);
#87=FACE_BOUND('',#71,.T.);
#88=FACE_BOUND('',#72,.T.);
#89=FACE_BOUND('',#73,.T.);
#90=FACE_BOUND('',#74,.T.);
#91=FACE_BOUND('',#75,.T.);
#92=FACE_BOUND('',#76,.T.);
#93=FACE_BOUND('',#77,.T.);
#94=FACE_BOUND('',#78,.T.);
#95=FACE_BOUND('',#79,.T.);
#96=FACE_BOUND('',#80,.T.);
#97=FACE_BOUND('',#81,.T.);
#98=CYLINDRICAL_SURFACE('',#171,35.);
#99=CYLINDRICAL_SURFACE('',#180,5.053);
#100=STYLED_ITEM('',(#108),#158);
#101=STYLED_ITEM('',(#109),#159);
#102=STYLED_ITEM('',(#110),#160);
#103=STYLED_ITEM('',(#111),#161);
#104=STYLED_ITEM('',(#112),#162);
#105=STYLED_ITEM('',(#113),#163);
#106=STYLED_ITEM('',(#114),#164);
#107=STYLED_ITEM('',(#115),#165);
#108=PRESENTATION_STYLE_ASSIGNMENT((#116));
#109=PRESENTATION_STYLE_ASSIGNMENT((#117));
#110=PRESENTATION_STYLE_ASSIGNMENT((#118));
#111=PRESENTATION_STYLE_ASSIGNMENT((#119));
#112=PRESENTATION_STYLE_ASSIGNMENT((#120));
#113=PRESENTATION_STYLE_ASSIGNMENT((#121));
#114=PRESENTATION_STYLE_ASSIGNMENT((#122));
#115=PRESENTATION_STYLE_ASSIGNMENT((#123));
#116=SURFACE_STYLE_USAGE(.BOTH.,#124);
#117=SURFACE_STYLE_USAGE(.BOTH.,#125);
#118=SURFACE_STYLE_USAGE(.BOTH.,#126);
#119=SURFACE_STYLE_USAGE(.BOTH.,#127);
#120=SURFACE_STYLE_USAGE(.BOTH.,#128);
#121=SURFACE_STYLE_USAGE(.BOTH.,#129);
#122=SURFACE_STYLE_USAGE(.BOTH.,#130);
#123=SURFACE_STYLE_USAGE(.BOTH.,#131);
#124=SURFACE_SIDE_STYLE('',(#132));
#125=SURFACE_SIDE_STYLE('',(#133));
#126=SURFACE_SIDE_STYLE('',(#134));
#127=SURFACE_SIDE_STYLE('',(#135));
#128=SURFACE_SIDE_STYLE('',(#136));
#129=SURFACE_SIDE_STYLE('',(#137));
#130=SURFACE_SIDE_STYLE('',(#138));
#131=SURFACE_SIDE_STYLE('',(#139));
#132=SURFACE_STYLE_FILL_AREA(#140);
#133=SURFACE_STYLE_FILL_AREA(#141);
#134=SURFACE_STYLE_FILL_AREA(#142);
#135=SURFACE_STYLE_FILL_AREA(#143);
#136=SURFACE_STYLE_FILL_AREA(#144);
#137=SURFACE_STYLE_FILL_AREA(#145);
#138=SURFACE_STYLE_FILL_AREA(#146);
#139=SURFACE_STYLE_FILL_AREA(#147);
#140=FILL_AREA_STYLE('',(#148));
#141=FILL_AREA_STYLE('',(#149));
#142=FILL_AREA_STYLE('',(#150));
#143=FILL_AREA_STYLE('',(#151));
#144=FILL_AREA_STYLE('',(#152));
#145=FILL_AREA_STYLE('',(#153));
#146=FILL_AREA_STYLE('',(#154));
#147=FILL_AREA_STYLE('',(#155));
#148=FILL_AREA_STYLE_COLOUR('',#156);
#149=FILL_AREA_STYLE_COLOUR('',#156);
#150=FILL_AREA_STYLE_COLOUR('',#156);
#151=FILL_AREA_STYLE_COLOUR('',#157);
#152=FILL_AREA_STYLE_COLOUR('',#156);
#153=FILL_AREA_STYLE_COLOUR('',#156);
#154=FILL_AREA_STYLE_COLOUR('',#156);
#155=FILL_AREA_STYLE_COLOUR('',#156);
#156=COLOUR_RGB('',0.689999997615814,0.769999980926514,0.870000004768372);
#157=COLOUR_RGB('',0.396078497171402,0.941176474094391,0.450980395078659);
#158=ADVANCED_FACE('',(#82,#83),#98,.T.);
#159=ADVANCED_FACE('',(#84,#85),#24,.F.);
#160=ADVANCED_FACE('',(#86,#87),#25,.T.);
#161=ADVANCED_FACE('',(#88,#89),#99,.F.);
#162=ADVANCED_FACE('',(#90,#91),#20,.F.);
#163=ADVANCED_FACE('',(#92,#93),#21,.F.);
#164=ADVANCED_FACE('',(#94,#95),#22,.T.);
#165=ADVANCED_FACE('',(#96,#97),#23,.T.);
#166=CLOSED_SHELL('',(#158,#159,#160,#161,#162,#163,#164,#165));
#167=MANIFOLD_SOLID_BREP('',#166);
#168=SHAPE_DEFINITION_REPRESENTATION(#252,#169);
#169=SHAPE_REPRESENTATION('SA8300E-6_3',(#170),#247);
#170=AXIS2_PLACEMENT_3D('',#221,#187,#188);
#171=AXIS2_PLACEMENT_3D('',#222,#189,#190);
#172=AXIS2_PLACEMENT_3D('',#223,#191,#192);
#173=AXIS2_PLACEMENT_3D('',#225,#193,#194);
#174=AXIS2_PLACEMENT_3D('',#227,#195,#196);
#175=AXIS2_PLACEMENT_3D('',#228,#197,#198);
#176=AXIS2_PLACEMENT_3D('',#230,#199,#200);
#177=AXIS2_PLACEMENT_3D('',#232,#201,#202);
#178=AXIS2_PLACEMENT_3D('',#233,#203,#204);
#179=AXIS2_PLACEMENT_3D('',#235,#205,#206);
#180=AXIS2_PLACEMENT_3D('',#237,#207,#208);
#181=AXIS2_PLACEMENT_3D('',#238,#209,#210);
#182=AXIS2_PLACEMENT_3D('',#240,#211,#212);
#183=AXIS2_PLACEMENT_3D('',#242,#213,#214);
#184=AXIS2_PLACEMENT_3D('',#243,#215,#216);
#185=AXIS2_PLACEMENT_3D('',#244,#217,#218);
#186=AXIS2_PLACEMENT_3D('',#245,#219,#220);
#187=DIRECTION('',(0.,0.,1.));
#188=DIRECTION('',(1.,0.,0.));
#189=DIRECTION('',(0.,0.,-1.));
#190=DIRECTION('',(-1.,0.,0.));
#191=DIRECTION('',(0.,0.,-1.));
#192=DIRECTION('',(-1.,0.,0.));
#193=DIRECTION('',(0.,0.,-1.));
#194=DIRECTION('',(-1.,0.,0.));
#195=DIRECTION('',(0.,0.,-1.));
#196=DIRECTION('',(-1.,0.,0.));
#197=DIRECTION('',(0.,0.,-1.));
#198=DIRECTION('',(-1.,0.,0.));
#199=DIRECTION('',(0.,0.,-1.));
#200=DIRECTION('',(-1.,0.,0.));
#201=DIRECTION('',(0.,0.,-1.));
#202=DIRECTION('',(-1.,0.,0.));
#203=DIRECTION('',(0.,0.,-1.));
#204=DIRECTION('',(-1.,0.,0.));
#205=DIRECTION('',(0.,0.,-1.));
#206=DIRECTION('',(-1.,0.,0.));
#207=DIRECTION('',(0.,0.,-1.));
#208=DIRECTION('',(0.,-1.,0.));
#209=DIRECTION('',(0.,0.,-1.));
#210=DIRECTION('',(-1.,0.,0.));
#211=DIRECTION('',(0.,0.,-1.));
#212=DIRECTION('',(-1.,0.,0.));
#213=DIRECTION('',(0.,0.,-1.));
#214=DIRECTION('',(-1.,0.,0.));
#215=DIRECTION('',(0.,0.,1.));
#216=DIRECTION('',(1.,0.,0.));
#217=DIRECTION('',(0.,0.,1.));
#218=DIRECTION('',(1.,0.,0.));
#219=DIRECTION('',(0.,0.,-1.));
#220=DIRECTION('',(-1.,0.,0.));
#221=CARTESIAN_POINT('',(0.,0.,0.));
#222=CARTESIAN_POINT('',(0.,0.,8.));
#223=CARTESIAN_POINT('',(0.,0.,0.5));
#224=CARTESIAN_POINT('',(-35.,0.,0.5));
#225=CARTESIAN_POINT('',(0.,0.,7.5));
#226=CARTESIAN_POINT('',(-35.,0.,7.5));
#227=CARTESIAN_POINT('',(0.,0.,8.));
#228=CARTESIAN_POINT('',(0.,0.,8.));
#229=CARTESIAN_POINT('',(-5.553,0.,8.));
#230=CARTESIAN_POINT('',(0.,0.,8.));
#231=CARTESIAN_POINT('',(-34.5,0.,8.));
#232=CARTESIAN_POINT('',(0.,0.,0.));
#233=CARTESIAN_POINT('',(0.,0.,0.));
#234=CARTESIAN_POINT('',(-5.553,0.,0.));
#235=CARTESIAN_POINT('',(0.,0.,0.));
#236=CARTESIAN_POINT('',(-34.5,0.,0.));
#237=CARTESIAN_POINT('',(0.,0.,8.));
#238=CARTESIAN_POINT('',(0.,0.,0.5));
#239=CARTESIAN_POINT('',(-5.053,0.,0.5));
#240=CARTESIAN_POINT('',(0.,0.,7.5));
#241=CARTESIAN_POINT('',(-5.053,0.,7.5));
#242=CARTESIAN_POINT('',(0.,0.,0.5));
#243=CARTESIAN_POINT('',(0.,0.,8.));
#244=CARTESIAN_POINT('',(0.,0.,0.));
#245=CARTESIAN_POINT('',(0.,0.,7.5));
#246=MECHANICAL_DESIGN_GEOMETRIC_PRESENTATION_REPRESENTATION('',(#100,#101,
#102,#103,#104,#105,#106,#107),#247);
#247=(
GEOMETRIC_REPRESENTATION_CONTEXT(3)
GLOBAL_UNCERTAINTY_ASSIGNED_CONTEXT((#248))
GLOBAL_UNIT_ASSIGNED_CONTEXT((#251,#250,#249))
REPRESENTATION_CONTEXT('SA8300E-6_3','TOP_LEVEL_ASSEMBLY_PART')
);
#248=UNCERTAINTY_MEASURE_WITH_UNIT(LENGTH_MEASURE(0.005),#251,
'DISTANCE_ACCURACY_VALUE','Maximum Tolerance applied to model');
#249=(
NAMED_UNIT(*)
SI_UNIT($,.STERADIAN.)
SOLID_ANGLE_UNIT()
);
#250=(
NAMED_UNIT(*)
PLANE_ANGLE_UNIT()
SI_UNIT($,.RADIAN.)
);
#251=(
LENGTH_UNIT()
NAMED_UNIT(*)
SI_UNIT(.MILLI.,.METRE.)
);
#252=PRODUCT_DEFINITION_SHAPE('','',#253);
#253=PRODUCT_DEFINITION('','',#255,#254);
#254=PRODUCT_DEFINITION_CONTEXT('',#261,'design');
#255=PRODUCT_DEFINITION_FORMATION_WITH_SPECIFIED_SOURCE('','',#257,
 .NOT_KNOWN.);
#256=PRODUCT_RELATED_PRODUCT_CATEGORY('','',(#257));
#257=PRODUCT('SA8300E-6_3','SA8300E-6_3','SA8300E-6_3',(#259));
#258=PRODUCT_CATEGORY('','');
#259=PRODUCT_CONTEXT('',#261,'mechanical');
#260=APPLICATION_PROTOCOL_DEFINITION('international standard',
'automotive_design',2010,#261);
#261=APPLICATION_CONTEXT(
'core data for automotive mechanical design processes');
ENDSEC;
END-ISO-10303-21;
